Oops, an error
Loading. Please wait.

Necesidad Chords

33 views 1 this week
no commentswrite comment
1 2 3 4 5
3 more votes to show rating
add to favorites
launch autoscroll
font size
0
reset
transpose
0
reset
simplify chords
display chords
guitar tuner
Autoscroll
slow
fast
+/-
esc
set tempo
stop
Help us to improve Ultimate-Guitar.com Take our survey!
×
Intro:
B5   G5   A5     B5
B5   G5   A5 A#5 B5

e|-------------------------------------
B|-------------------------------------
G|-------------------------------------
D|--4------5------4------5------5-4-5*-
A|--2--2-2---2-2---2-2---2-2-----------
E|-------------------------------------


B5                          G5
No puedo vivir colgado del pasado,
B5                                      G5
por el dolor y la soledad que me ha tocado.

D5                    A5
No puedo seguir, no puedo insistir,
B5
estoy cansado, estoy asqueado,
G5
si este mundo corre y da vueltas
F#5           B5-C#5-D5-C#5-B5
hoy quiero parar.

B5               G5
Necesidad, de creer,
B5                G5
necesidad, de querer.

D5
Escuchando tu voz
A5
ardió mi corazón
B5
reviví otra vez
G5     F#5
quitaste toda mi soledad.

[Escala: B menor armónica]
e|--------------------------------------------
B|--------------------------------------------
G|--------------------------------------------
D|------------------------4h5-4---------------
A|-----1h2-2--------5-4----------7-5-4--------
E|------------3-2-0---------------------7-6-7-


[Solo]
//B5 A5 G5 F#5//


B5                          G5
No puedo insistir, todo lo he perdido,
B5                                       G5
si sé alguien tirado están mis mejores amigos.

D5                    A5
Si antes luché solo, sin dirección,
    B5
vacío mi interior
G5
nunca es demasiado tarde
F#5        B5-C#5-D5-C#5-B5
con tu perdón.

B5               G5
Necesidad, de creer,
B5                G5
necesidad, de querer.

D5
Escuchando tu voz
A5
ardió mi corazón
B5
reviví otra vez
G5     F#5
quitaste toda mi soledad.

[Final, Escala: Bm armónica]
e|---------------------------------------------------------------
B|---------------------------------------------------------------
G|----------------------------------------------------------------
D|--4h5-4--------------4h5-4----------------4h5-4-----------------
A|---------7-5-4---------------7-5-4---------------7-5-4---------
E|----------------7-6-----------------7-6----------------7-6-

[Golpes finales, Escala:  Bm armónica]
e|--------------------------------------------
B|--------------------------------------------
G|--------------------------------------------
D|--4h5-4-------------------------------------
A|----------7-5-4---------------5-4-2--1--2---
E|------------------7-6--3-2-0----------------


::::::::::::::::::::::::::::::::::::::::::::::::::::


Espero haya sido de utilidad, todo los acordes son quintas debido
a que es un género Hard Rock, y todas las escalas que se usan son
en Bm armónica. Dudas, comentarios o peticiones, agregarme
christopher_mt@

Hasta pronto!
Suggest correction
Give kudos to tab author, rate the tab!
1 2 3 4 5
comments
print report bad tab
guest
You may want to rate the tab now too:
select rating
Wanna post a correction for this tab? Suggest correction