Oops, an error
Loading. Please wait.

Todo A Cristo Tab

47 views 1 this week
no commentswrite comment
1 2 3 4 5
3 more votes to show rating
add to favorites
launch autoscroll
font size
0
reset
how to read this tab
guitar tuner
×
Best way to learn
"Todo A Cristo"
Autoscroll
slow
fast
+/-
esc
set tempo
stop
Intro  A5

Riff A

-----------------------------------------------------------------10-9-9h10-7-9------
2/14---14-14b(15)-14------12-12-12b(14)-12------10-10------------------10-
-----------------------------------------------------------------------------------------
-----------------------------------------------------------------------------------------
-----------------------------------------------------------------------------------------
-----------------------------------------------------------------------------------------

Lick
-10p9-----------------
--------10-------------
------------9/11-9----
------------------------
------------------------
------------------------
                                                      *

17-16h17-14--12--------------------------16-14h16-14-12------------17-17-
-----------------------15b(17)-15-14-15-----------------------15-----14--------
--------------------------------------------------------------------------------------
--------------------------------------------------------------------------------------
--------------------------------------------------------------------------------------
--------------------------------------------------------------------------------------


--------------------------17-16-16h17p16p14------------------------
14--15-17b(19)-17-------------------------------17--15--14--12-
---------------------------------------------------------------------------
---------------------------------------------------------------------------
---------------------------------------------------------------------------
---------------------------------------------------------------------------

Solo
--------------------------------------------------------------------------------------------------12-14
---------------------------------------------------------------------------------------12-14-15-------
14(16)-14-13-14----13h14p13-11h13p11----14(16)-14-13-14---11-13-14------------------
---------------------------------------------------------------------------------------------------------
----------------------------------------------------------------------------------------------------------
----------------------------------------------------------------------------------------------------------

                                    Esta frase ultima se repite
----------------------------------------------------------------------------------------------------------
------------------------------------------------------------10----------------------------------
14b(16)-14p13h14---13h14-13p11---------9/11vvv---11vvv--------------------------------
----------------------------------------------------------------------------------------------------------
----------------------------------------------------------------------------------------------------------
----------------------------------------------------------------------------------------------------------
Este fraseo y el siguente se repite
--------------------------------------------------------------
--------------------------------------------------------------
11-11-10-11--13-14-13v---11-10-11-------------------
--------------------------------------------11-11/12-11----
---------------------------------------------------------------
---------------------------------------------------------------

---------------------------------------------------------------------
---------------------------------------15-14-14h15-12h14vv-
11-11-10-11--13-14-13v--11-10-------------------------------
----------------------------------------------------------------------
----------------------------------------------------------------------
----------------------------------------------------------------------

                                A.A.                                                      A.A
14-14-12-12-------------------------------------------------------------
----------------15-15-14----------12b(14)-12-10----------------10--
-------------------------------------------------------9-------------------
------------------------------------------------------------9-10-11------
----------------------------------------------------------------------------
----------------------------------------------------------------------------

14-14-16-16-17-17---17b(19)-14h17p14--14-----------------------------------------
--------------------------------------------------17-------17b(19)vv--------------------------------
----------------------------------------------------------------------------------------------------------
----------------------------------------------------------------------------------------------------------
----------------------------------------------------------------------------------------------------------
----------------------------------------------------------------------------------------------------------

Esta es la variación que hace antes de terminar el solo, usando el mismo riff
14-14-16-16-17-17---17b(19)-14h17p14--14-----------------------------17--------
--------------------------------------------------17-------------17b(19)-17b(19)-17**-
------------------------------------------------------------------------------------------------
------------------------------------------------------------------------------------------------
-------------------------------------------------------------------------------------------------
-------------------------------------------------------------------------------------------------

Vuelve a empezar el tema.

Aca viene la parte que diria ?quiero amarle?

--------10-9--------------------------------------------------------------------------------
12-12-------12--------------------------------------------------------------------------------------
----------------------------------------------------------------------------------------------------------
----------------------------------------------------------------------------------------------------------
----------------------------------------------------------------------------------------------------------
----------------------------------------------------------------------------------------------------------


Fin
-----------------------------------
----14-17b(19)-t21***--17---
14--------------------------------
-----------------------------------
-----------------------------------
-----------------------------------
Suggest correction
Give kudos to tab author, rate the tab!
1 2 3 4 5
comments
print report bad tab
guest
You may want to rate the tab now too:
select rating
Wanna post a correction for this tab? Suggest correction