Oops, an error
Loading. Please wait.

De La Luz Y La Sombra Tab

46 views 3 this week
no commentswrite comment
1 2 3 4 5
3 more votes to show rating
add to favorites
launch autoscroll
font size
0
reset
how to read this tab
guitar tuner
Autoscroll
slow
fast
+/-
esc
set tempo
stop
Aqui les dejo esta tablatura de una canción del maestro Aute,
es mi primera tab. que mando aqui y espero les sea útil.

 intro:


e|------------------------------------------------------|
B|--3-4-6-4-3-8--8----1-3-4-3-1--6--6----3-3-3-3-6------|
G|-------------------------------------------------3----|
D|------------------------------------------------------|
A|------------------------------------------------------|
E|------------------------------------------------------|


e|--------------------------------------------------------|
B|--------------------6-7-9-7-6--11----8-10-11-10-8--10---|
G|--2-3-5/3-2-7--7-----------------------------------11---|
D|--------------------------------------------------------|
A|--------------------------------------------------------|
E|--------------------------------------------------------|


e|-----------------------------------|
B|--10p8-7-5-3-4-5-----6--6----------|
G|-----------------------------------|
D|-----------------------------------|
A|-----------------------------------|
E|-----------------------------------|


En esta parte hize unos acompañamientos que no lleva la canción
pero los puedes tocar,
Luego de cada verso sigue una parte del intro
que les deje arriba.


C
 Ir andando sin norte,
F
 sin oeste, sin este,
A
 y extraviado del sur...
D
 como gira este mundo
A*
 de la luz a la sombra,
D*
 de la sombra a la luz...
A*
 de la luz y la sombra

A ti.


    A*     D*
e|--5------10-------------|
B|--5------10-------------|
G|--6------11-------------|
D|--7------12-------------|
A|--7------12-------------|
E|--5------10-------------|


Sigue la luz y aprende de la sombra.

Sonic_Blueboy.
Suggest correction
Give kudos to tab author, rate the tab!
1 2 3 4 5
comments
print report bad tab
guest
Wanna post a correction for this tab? Suggest correction