Oops, an error
Loading. Please wait.

Amiga Tab

23 views 1 this week
no commentswrite comment
1 2 3 4 5
3 more votes to show rating
add to favorites
launch autoscroll
font size
0
reset
how to read this tab
guitar tuner
×
Best way to learn
"Amiga"
Autoscroll
slow
fast
+/-
esc
set tempo
stop
aver una pequeña lo hare lo mas entendible
las notas del intro solo es para que se guien en el punteo.


NOTAS RARAS:
                         ||||||
                         OO||||              ||||||
               Dadd9/F#: ||O||O           D*:O|O|||
                         ||||||              |O|O||
                         °°°°°°              °°°°°°
                         123456              123456


INTRO:

         G              Am7          G                   C
1|---------------|---------------|------|--3-2-0---|------0----|
2|--0-------0--0-|--1------1-0-1-|--3---|--------0-|--1----3-1-|
3|--------0---2--|-------0-------|----0-|----------|----0------|
4|------0--------|---------------|------|----------|-----------|
5|---------------|--0------------|--2---|----------|--3--------|
6|--3------------|---------------|------|----------|-----------|


       G       Dadd9/F#      Em         A7              D
1|----------|-----------|----------|--------0-|----------2-------|
2|--3-----3-|--3-----3--|--0-----0-|--2-2-3---|------3-------3---|
3|------0---|------2----|------0---|----------|----2---2---2---2-|
4|----0-----|----0------|----2-----|----------|--0---------------|
5|----------|-----------|--2-------|--0-------|------------------|
6|--3-------|--2--------|----------|----------|------------------|


RIFF: 1

     Dm          D
1|--3-----3-|--2---3---|\
2|------1---|--------3-| \
3|----0-----|----2-----|  \ESTA TAMBIEN SE TOCA JUSTO ANTES DE COMENZAR
4|--0-------|--0-------|  /EL CORO.
5|----------|----------| /
6|----------|----------|/


TODA LA CANCION YO LA TOCO EN ARPEGIO Y SU BAJO RESPECTIVO A CADANOTA
SI GUSTAN LE PUEDEN METER
SU RASGUEO CUANDO LES PARESCA.


 G             Dadd9/F#       Em
Se que algunos piensan que es locura
           C           G
que yo te trate con ternura,
         Am    C/G   D
sin que busque algo mas
  G             Dadd9/F#       Em
y es que un corazon si esta maltrecho
        C           G
busca caminos mas estrechos
     Am     C/G    D   D*
para compartir y amar
        Em            Bm
quien pudiera ser un niño
        C           G - Dadd9/F#
o tu hermano de verdad
     Em             Bm           C           Am      C/G    D   RIFF: 1
y decir que soy tu amigo sin que me tomes a mal.    aaaa   aaaa


CORO I

Amiga con sinceridad
sin pedirte mas de lo que tu me puedes dar
de veras,
se puede lograr
ser como ese viento que refresca nuestro anadar
si hay camino que se haga solo al caminar.

En tu corazon guaradabas dudas
de tu soñar y mi ternura
y lo que pueda pasar
mezcla de inocencia y de cuidado
y ese temor por lo pasado
te hizo verme con frialdad;
deja a atras hermana amiga
lo que un dia te hizo mal
te prometo hacer lo mismo
para asi poder cantar

CORO II

Amiga,
con sinceridad,
sin pedirte mas de lo que tu me puedes dar
de veras,
se puede lograr
ser como ese viento que refresca nuestro andar
si hay camino que se haga solo al caminar
oh oh, oh oh oh
Sin pedirte mas de lo que tu me quieras dar.
Suggest correction
Give kudos to tab author, rate the tab!
1 2 3 4 5
comments
print report bad tab
guest
You may want to rate the tab now too:
select rating
Wanna post a correction for this tab? Suggest correction