Oops, an error
Loading. Please wait.

Mi Felicidad Tab

33 views 1 this week
no commentswrite comment
1 2 3 4 5
3 more votes to show rating
add to favorites
launch autoscroll
font size
0
reset
how to read this tab
guitar tuner
×
Best way to learn
"Mi Felicidad"
Autoscroll
slow
fast
+/-
esc
set tempo
stop
Intro
e|-10---------------------10.----10-12.-10----------------12-------------
B|----12.-10-12-13.-12-13-----13-----------13-12.-10.--------10.---------
G|----------------------------------------------------12.--------12-11.--
D|-----------------------------------------------------------------------
A|-----------------------------------------------------------------------
E|-----------------------------------------------------------------------

e|-------------|
B|-------------|
G|-12-11-12..--|
D|-------------|
A|-------------|
E|-------------|

1.
G           Am           G            Am
Me diste la vida, una guitarra y esta voz
       C            Am           F            D
me diste canciones sin pedirme derechos de autor
      Em            Emmaj7          Em7         A7
inventaste el Padre nuestro que mi vieja me enseñó
      C         Am            F         D
y llenaste de ideales a este pobre corazón

e|-2-3-5..--|
B|----------|
G|----------|
D|----------|
A|----------|
E|----------|

(Mismo acordes de 1.)
Fuiste aquel cupido que me presentó a mi amor
y nacieron dos buenas razones para estar mejor
nos prestaste una cabaña tres pisos más cerca al sol
y hasta una cuenta bancaria que va y viene sin temor

Coro
      G                        Bm
Y yo qué te puedo dar que no me hallas dado ya
       Em                          G
en qué te puedo ayudar si esa es tu especialidad
        C           D                    Bm        Em
qué más te puedo pedir si antes que yo empiece a hablar
        C                            Am        D
tu ya me entregaste todo y hasta un poquitito más
        G                    Bm
Qué te voy a reclamar cuando me toque llorar

        Em                     G
de qué te puedo acusar si algo me quieres quitar
      C          D                Bm  Em
sólo te puedo decir que esta mi felicidad
        C              Am   D      G
la iré compartiendo a todos al cantar, uh uh uh uh...

Solo 1
e|--------------10..-10--------------------------12.-------------------
B|-12.-10-12-13---------13-12..----10-12..-10------------------10-12.--
G|------------------------------12------------12-----12-11.-12---------
D|---------------------------------------------------------------------
A|---------------------------------------------------------------------
E|---------------------------------------------------------------------

e|---------------------------------------------|
B|-10.--------------------12.-10..-------------|
G|-----12.-11.-9.------------------11/12-11..--|
D|----------------12.-10.----------------------|
A|---------------------------------------------|
E|---------------------------------------------|

(Mismo acordes de 1.)
Tengo una jirafa que mi hijo me dibujó
y también una 'Inca-Cola' que es mi única adicción
la sonrisa de mi nena y unas noches con mi amor
y el millón de amigos que Roberto Carlos añoró

(Mismo acordes de 1.)
Y por si fuera poco, tu me diste una misión
y me invitas a cenar para evaluar la situación
tu mama nos dio una barca y un escudo protector
una red para pescar y tu palabra cual timón

Coro

Solo 2
e|-12.-------------------------------------------------------------------|
B|-----10/12/10--------10-12.-10.-------------------12.-10..----10-12..--|
G|--------------12.-12------------12.-11.-9.-----------------12----------|
D|------------------------------------------12.-10.----------------------|
A|-----------------------------------------------------------------------|
E|-----------------------------------------------------------------------|

Coro
Suggest correction
Give kudos to tab author, rate the tab!
1 2 3 4 5
comments
print report bad tab
guest
You may want to rate the tab now too:
select rating
Wanna post a correction for this tab? Suggest correction