Oops, an error
Loading. Please wait.

Te Alabamos Tab

23 views 1 this week
no commentswrite comment
1 2 3 4 5
3 more votes to show rating
add to favorites
launch autoscroll
font size
0
reset
how to read this tab
guitar tuner
Autoscroll
slow
fast
+/-
esc
set tempo
stop
Help us to improve Ultimate-Guitar.com Take our survey!
×
Ok. Este es el solo de Te alabamos esta recontra fácil, saquenlo
para alabar Dios weno este es ps:

...Mi señor oh-oh.... y alli seguido va:

E --------------------------------------------------------------
A --------------------------------------------------------------
D ?-7h9-------------------9--9?7--7/9--9--------7--------------
G -------7--9b11--9--7p5-------------------6--7-----9b11--7--9--
B --------------------------------------------------------------
E --------------------------------------------------------------

E --------------------------------------------------------------
A --------------------------------------------------------------
D --------------------------------------------------------------
G --7--11---------11--------------------------------------------
B ---------8--10----------------------------12---------17b19----
E --------------------10--12b14--12--10--9------9--10--------17-

E --------------------------------------------------------------
A --------------------------------------------------------------
D --------------------------------------------------------------
G --------------------------16----------------------------------
B --17b19-----17b19r17--15------15------------------------------
E --------17----------------------------------------------------

Cualquier cosa allí tienen mi msn ya saben q;
b = bend
r = release bend
/ = slide
h = hammer on
p = pull of

Bien los acordes son faciles por eso no los pongo si alguien los quiere
me los puede pedir. OK!!! Bye Dios los bendiga a todos.
Suggest correction
Give kudos to tab author, rate the tab!
1 2 3 4 5
comments
print report bad tab
guest
You may want to rate the tab now too:
select rating
Wanna post a correction for this tab? Suggest correction