Oops, an error
Loading. Please wait.

Palabras De Vida Eterna Tab

version 1
version 1

Whole song

26 views 1 this week
no commentswrite comment
1 2 3 4 5
3 more votes to show rating
add to favorites
launch autoscroll
font size
0
reset
how to read this tab
guitar tuner
Autoscroll
slow
fast
+/-
esc
set tempo
stop
Help us to improve Ultimate-Guitar.com Take our survey!
×
 Esta es el Intro se repite 2 veces asi que no sean 
bestias y no lo agan una vez ok

intro guitarra electrica tipo Santana

E|-----------------------------------------------
B|----------1---3/5---3------5--3----1-----------
G|---2--2---------------------------------2------
D|-----------------------------------------------
A|-----------------------------------------------
e|-----------------------------------------------


E|--------------------5--------------------------
B|----------1---3/5---------5--3-----------------
G|---2--2----------------------------------------
D|-----------------------------------------------
A|-----------------------------------------------
e|-----------------------------------------------

 


 Am                       D7 
Pan de vida  es  Cristo 
       Am                    D7 
La luz del mundo  es  Jesús 
        C                              D7       
Cordero de Dios inmolado en la Cruz 
  Bm                   Esus4 
Mi salvador y Rey 
       Am                        D7 
El gran maestro es  Cristo 
       Am                  D7 
El  buen Pastor   es Jesús 
      C                           D       
El Hijo de Dios y el gran YO SOY 
      Bm                          Esus4    E 
El agua que sacia mi sed 


com esto se toca el coro

E|-----------------------------------------------
B|----------1---3/5---3------5--3----1-----------
G|---2--2---------------------------------2------
D|-----------------------------------------------
A|-----------------------------------------------
e|-----------------------------------------------


E|--------------------5--------------------------
B|----------1---3/5---------5--3-----------------
G|---2--2----------------------------------------
D|-----------------------------------------------
A|-----------------------------------------------
e|-----------------------------------------------

coro:  
                         Am                                            D7 
Solo Cristo   tiene      palabras de vida   eterna 
                       Am                                            D7 
Solo Cristo tiene      palabras de vida  eterna 
               Am                         F         
para el afligido, para el quebrantado 
          C                                             Dm          
para todo aquel que quiera ser, libre de pecado. 


ok cualquier consulta a mi mail o a mi site

por si acaso si me escriben esta hablando con
unmusico de Dios no cualquier musico ok bye
bendiciones
Suggest correction
Give kudos to tab author, rate the tab!
1 2 3 4 5
comments
print report bad tab
guest
You may want to rate the tab now too:
select rating
Wanna post a correction for this tab? Suggest correction