Oops, an error
Loading. Please wait.

Palabras De Vida Eterna Tab

version 2
version 2

Whole song

74 views 1 this week
no commentswrite comment
1 2 3 4 5
3 more votes to show rating
add to favorites
launch autoscroll
font size
0
reset
how to read this tab
guitar tuner
Autoscroll
slow
fast
+/-
esc
set tempo
stop
Help us to improve Ultimate-Guitar.com Take our survey!
×
intro de piano: //Am-D7//
intro de guitarra.

E|-5-5-8---8-8--5-5-8---------5-5-8---8-8--5-5-8-----
B|------7-5-5--------7-9-7-5-------7-5-5--------7-5--
G|---------------------------------------------------
D|---------------------------------------------------
A|---------------------------------------------------
e|---------------------------------------------------


Am             D7
Pan de vida es Cristo

   Am            D7
la luz del mundo es Jesús

   C                D7
Cordero de Dios inmolado en la cruz

Bm            Esus4
mi Salvador y Rey


   Am              D7
El gran maestro es Cristo

   Am          D7
el Buen Pastor es Jesús

   C                 D
el Hijo de Dios y el gran YO SOY

   Bm                 Esus4  E
el agua que sacia mi sed

coro:
se tocan las notas junto con la fifgura de la guitarra

E|-5-5-8---8-8--5-5-8---------5-5-8---8-8--5-5-8-----
B|------7-5-5--------7-9-7-5-------7-5-5--------7-5--
G|---------------------------------------------------
D|---------------------------------------------------
A|---------------------------------------------------
e|---------------------------------------------------

            Am                      D7
Solo Cristo tiene Palabras de Vida Eterna

            Am                       D7
Solo Cristo tiene Palabras de Vida Eterna

        Am                F
para el aflijido, para el quebrantado

     C                         Dm             E
para todo aquel que quiera ser libre del pecado


Suggest correction
Give kudos to tab author, rate the tab!
1 2 3 4 5
comments
print report bad tab
guest
You may want to rate the tab now too:
select rating
Wanna post a correction for this tab? Suggest correction