Oops, an error
Loading. Please wait.
We have Chord Pro version of Despacito.
It's the closest thing you can get to the original song and it has interactive parts. Check out the tab »
×

Despacito tab

version 2
version 2

Whole song

  • Don't find the ( ) and x intimidating they are jus... Show more
  • Full fingerstyle arrangement by Andrew Foy.

Interactive

Video

5,641 views 372 this week
no commentswrite comment
1 2 3 4 5
x 7
add to favorites
×
Save as Personal and add changes to this tab that will be seen only by you. Learn more ›
×
You can save this tab as Personal to edit and correct it or add notes. All changes will be seen only by you. Learn more »
launch autoscroll
font size
0
reset
how to read this tab
guitar tuner
edit
Autoscroll
slow
fast
+/-
esc
set tempo
stop
About this tab version
Full fingerstyle arrangement by Andrew Foy. Was this info helpful? Yes No
https://www.youtube.com/watch?v=8YELO9yxs_c

[Intro]
e|---5-8-7-4-5----5-7-8/12-(12/)--12--12--12-----8-----7---5------------------|
B|--5-------------5-----------------13--13-----------------5------------------|
G|-5--------------5---------------------------/9----/7-----5------------------|
D|----------------------------------------------------------------------------|
A|----------------------------------------------------------------------------|
E|----------------------------------------------------------------------------|

e|----------------------------------------------------------------------------|
B|-------------------0-0h1p0-------------------------0-0h1p0------------------|
G|----2-2--2-2--2-2----------2---------2-2--2-2--2-2---------2p0--0-----0-0-0-|
D|--------------------------------3-------------------------------2-2---------|
A|--0------0------------------------------------------------------3---3-----3-|
E|------------------------------1---1-------1---------------------------------|

e|-------0--------------------------------------------------------------------|
B|-1-1h3---3p1--1h3p1-0---0----------------1h3--------------------------------|
G|------------------------0--2p0---------0-----0----0h2-----------------------|
D|------------------------0--------0-0h2-----------------2----/10-10-10-7-----|
A|-------------------------------------------------0-------0--------------10--|
E|------------------------3------3---3----------------------------------------|

e|----------------------------------------------------------------------------|
B|----------------------------------------------------------------------------|
G|-7h9-7-----7----7-7h9p7-------7h9-7-------------7-7-7-7h9p7-----------------|
D|--------10---------------12-7---------7h10p7----------------10-7----7-10----|
A|---------8----8------------------------------10------------------10---------|
E|------------------------------------8---------------------------------------|

e|--------------------------------------------------------------------0-------|
B|----9/10----------------------------------------------------1-1-1h3---3p1---|
G|--7----------9-9-9h10p9p7----7----7h9--------2-2--2-2--2-2------------------|
D|--------------------------10---10--------2----------------------------------|
A|----------10---------------------------0---0------0-------------------------|
E|----------------------------------------------------------------------------|

e|------------------------------0-----------------------------0-------0-------|
B|----------------------1-1-1h3---3p1-----------1-1--1-1--1h3---3p1-3---3p1---|
G|---2---2-2--2-2--2-2------------------0-0-0---------------------------------|
D|-3---3------3-------------------------2-------------------------------------|
A|--------------------------------------3-----3------3------------------------|
E|----------------------------------------------------------------------------|

e|--------------------0-----0-------------------------------------------------|
B|-1------3-3--3-3--3---3p1---3p1---------------------------------------------|
G|-0--------------------------------------------------------------------------|
D|---0------------------------------------------------------------------------|
A|----------------------------------------------------------------------------|
E|-3---3-------3--------------------------------------------------------------|

[Verse]
e|-----5-5----------------------------------1-1-------------------------------|
B|-----5-5--------0-0h1p0h1p0--1--1----0----1-1-----1-1--0-0h1p0h1p0--1-1-----|
G|-----5-5----2-2-------------------------2-2-2-----2-2-----------------------|
D|-/7--7----------------------------------3-3-3------------3----------3-------|
A|--0--0----x---x---0-----x----0----x-------3-3--x----x----------x---------x--|
E|----------x---x---------x---------x-----1-1----x----x----------x---------x--|

e|-------/8---8----8------------------------------3--3--3--3------------------|
B|-3-----/8---8----8------(0)-1p0h1p0-1-1---3--0--0--0--0--0------------------|
G|----0--/9---9----9----------0-------0--------0--0--0--0--0------2---2---0-2/|
D|----2--/10--10---10-----------------------------0--0--0--0--0---------------|
A|----3---------x------x------3---x---3---x-------0--------x-------x------x-0-|
E|--------------x------x----------x-------x----3--3--------x----3-x-3---3-x---|

e|-----5-5----------------------------------1-1-------------------------------|
B|-----5-5--------0-0h1p0h1p0--1--1----0----1-1-----1-1--0-0h1p0h1p0--1-1-----|
G|-----5-5----2-2-------------------------2-2-2-----2-2-----------------------|
D|-/7--7----------------------------------3-3-3------------3----------3-------|
A|--0--0----x---x---0-----x----0----x-------3-3--x----x----------x---------x--|
E|----------x---x---------x---------x-----1-1----x----x----------x---------x--|

e|--------/8---8----8--------------------------------3--3--3--3----2----------|
B|-3------/8---8----8------(0)-1p0h1p0-1-1-----3--0--0--0--0--0---------------|
G|----0---/9---9----9----------0-------0----------0--0--0--0--0--0------------|
D|----2---/10--10---10-------------------------------0--0--0--0---------------|
A|----3----------x------x------3---x---3----x--------0--------x---------------|
E|---------------x------x----------x--------x-----3--3--------x---------------|

[Chorus]
                                                o     o
            o      o     o        o       o     t  o  t  o        o
e|----------------------------------------------1-----1-----------------------|
B|----------------------------------------------1-----1-------------0-----1---|
G|-2/5------0h2----------2-2-2-2-----0-2--------2-----2--2-2-2-2----------0---|
D|-----5/9------2-----2---------------------3---3-----3-------------------2---|
A|----------0------------0----------------------3-----3----------------x----3-|
E|----------------------------------------1-----1-----1--1-------------x------|

      t  o  t  o       o             t  o  t 
e|----------------------------------------------------------------------------|
B|-------------1-1-1-1---3----1---0-------------------------------------------|
G|-0--------------------------0---0-------------------------------------------|
D|-2--2-----2-----------------0---0-------------------------------------------|
A|----3-----3--3-----------x--------------------------------------------------|
E|-------------------------x----3----3-----3----------------------------------|

            o      o     o        o       o     t  o  t  o        o
e|----------------------------------------------1-----1-----------------------|
B|----------------------------------------------1-----1-------------0-----1---|
G|-2/5------0h2----------2-2-2-2-----0-2--------2-----2--2-2-2-2----------0---|
D|-----5/9------2-----2---------------------3---3-----3-------------------2---|
A|----------0------------0----------------------3-----3----------------x----3-|
E|----------------------------------------1-----1-----1--1-------------x------|

      t  o  t  o       o             t  o  t  t      t t
e|----------------------------------------------------------------------------|
B|-------------1-1-1-1---3----1---0-------------------------------------------|
G|-0--------------------------0---0-------------------------------------------|
D|-2--2-----2-----------------0---0--------0----------------------------------|
A|----3-----3--3-----------x-------------------------------x------------------|
E|-------------------------x----3----3-----3--3/10--10-8\7-x------------------|

[Bridge]
e|--------------------------------------1---------------1-1-1-1-----3-----1---|
B|--5----5---5------5--------5-5--5-5---1----1----------1-1-1-1-----1-----1---|
G|--5--7---7---7----5-----7--5-7--5-5--------2----------2-----------------0---|
D|--7---------------------7--7-7--7-7------3---3-----3--3---------------------|
A|--0--------x---x-----0----------x---x-----------x--------------x-----x------|
E|-----------x---x----------------x---x-----------x--------------x-----x------|

e|----0-------------0-0-0-0-----3--(1)--0-------------------------------------|
B|----0h1-----------1-----------0--(1)--1-----3--------------(0)-(0)----------|
G|----0-------------0--------------(0)--0-----0---------0----(0)-(0)----------|
D|---------------2----------------------------0---------0----(0)-(0)----------|
A|-3-------3--x--------------x------x--------------x----------x---x-----------|
E|------------x--------------x------x------3----3--x--3----3--x---x-----------|

e|--------------------------------------1---------------1-1-1-1-----3-----1---|
B|--5----5---5------5--------5-5--5-5---1----1----------1-1-1-1-----1-----1---|
G|--5--7---7---7----5-----7--5-7--5-5--------2----------2-----------------0---|
D|--7---------------------7--7-7--7-7------3---3-----3--3---------------------|
A|--0--------x---x-----0----------x---x-----------x--------------x-----x------|
E|-----------x---x----------------x---x-----------x--------------x-----x------|

e|----0-------------0-0-0-0-----3--(1)--0-------------------------------------|
B|----0h1-----------1-----------0--(1)--1-----3-------------------------------|
G|----0-------------0--------------(0)--0-----0-------------------------------|
D|---------------2----------------------------0-------------------------------|
A|-3-------3--x--------------x------x--------------x--------------------------|
E|------------x--------------x------x------3----3--x--3-----------------------|

[Verse]
e|----------------------------------------------------------------------------|
B|-0h1-1-1-1-1-1-1-0--0h1p0--------1-1-1-1--0h1p0------1-1-1-1--0h1p0---------|
G|---------------------------2--2-----------------2--2-----------------2--2---|
D|-------------------------------------2-------------------2------------------|
A|--------------------0---------0--3--------0--------0-3----------------------|
E|--------------------------------------------------------------1---------1---|

e|-------------------------------------------0--------------------------------|
B|-1-1-1-1--0h1p0--------1-1-1-1---1-1-1-3-3---1-1-----------0h1-1-1-1--3-3-3-|
G|-----------------2--2------------0-----------0-----/5--/5-------------------|
D|-----------------------0---------2-----2-----------/5--/5-------------------|
A|-0---3---------------------3-----3------------------------------------------|
E|----------1---------1-------------------------------------------------3-----|

e|-----0----------------------------------------------------------------------|
B|-3-3---1-1------------------------------------------------------------------|
G|------------/5--/5----------------------------------------------------------|
D|-------0----/5--/5----------------------------------------------------------|
A|-2--------------------------------------------------------------------------|
E|----------------------------------------------------------------------------|

[Bridge]
             o                    o                                    o
e|---------------------------------------------------------------------------|
B|-0h1-1-0-----------0-0-0h1p0-------------1-1-0------------1-1-0------------|
G|-----------2-------2---------2-----------2--------2-------2------2---------|
D|-------------2-----2----------------2----2--------3-3-----3------3------3--|
A|-----------0---0---x------------------0--x----------------x----------------|
E|-------------------x---------------------x--------1----1--x----------------|

               o
e|---------------------------------------------------------------------------|
B|----3-3-3-0--1h3--1-----3-3-3-0---1h3------1-----1-1-1-1---0--0-----0--0---|
G|---(0)------------0-----0---------0--------0-----0---------0--0-----0--0---|
D|---(2)---------------------------------------------------------------------|
A|----x--------3-------3--x---------------3-----3--x------------------x------|
E|-1--x-------------------x------------------------x---------3-----3--x--3---|

e|---------------------------------------------------------------------------|
B|--0--0-0h1-0---------------------------------------------------------------|
G|--0--0---------------------------------------------------------------------|
D|---------------------------------------------------------------------------|
A|---------------------------------------------------------------------------|
E|--------------3------------------------------------------------------------|

             o                    o                                    o
e|---------------------------------------------------------------------------|
B|-0h1-1-0-----------0-0-0h1p0-------------1-1-0------------1-1-0------------|
G|-----------2-------2---------2-----------2--------2-------2------2---------|
D|-------------2-----2----------------2----2--------3-3-----3------3------3--|
A|-----------0---0---x------------------0--x----------------x----------------|
E|-------------------x---------------------x--------1----1--x----------------|

               o
e|---------------------------------------------------------------------------|
B|----3-3-3-0--1h3--1-----3-3-3-0---1h3------1-----1-1-1-1---0--0-----0--0---|
G|---(0)------------0-----0---------0--------0-----0---------0--0-----0--0---|
D|---(2)---------------------------------------------------------------------|
A|----x--------3-------3--x---------------3-----3--x------------------x------|
E|-1--x-------------------x------------------------x---------3-----3--x--3---|

e|---------------------------------------------------------------------------|
B|--0--0-0h1-0---------------------------------------------------------------|
G|--0--0----------2-2--------------------------------------------------------|
D|---------------------------------------------------------------------------|
A|---------------------------------------------------------------------------|
E|--------------3------------------------------------------------------------|

[Chorus]
                                                o     o
            o      o     o        o       o     t  o  t  o        o
e|----------------------------------------------1-----1-----------------------|
B|----------------------------------------------1-----1-------------0-----1---|
G|-2/5------0h2----------2-2-2-2-----0-2--------2-----2--2-2-2-2----------0---|
D|-----5/9------2-----2---------------------3---3-----3-------------------2---|
A|----------0------------0----------------------3-----3----------------x----3-|
E|----------------------------------------1-----1-----1--1-------------x------|

      t  o  t  o       o             t  o  t 
e|----------------------------------------------------------------------------|
B|-------------1-1-1-1---3----1---0-------------------------------------------|
G|-0--------------------------0---0-------------------------------------------|
D|-2--2-----2-----------------0---0-------------------------------------------|
A|----3-----3--3-----------x--------------------------------------------------|
E|-------------------------x----3----3-----3----------------------------------|

            o      o     o        o       o     t  o  t  o        o
e|----------------------------------------------1-----1-----------------------|
B|----------------------------------------------1-----1-------------0-----1---|
G|-2/5------0h2----------2-2-2-2-----0-2--------2-----2--2-2-2-2----------0---|
D|-----5/9------2-----2---------------------3---3-----3-------------------2---|
A|----------0------------0----------------------3-----3----------------x----3-|
E|----------------------------------------1-----1-----1--1-------------x------|

      t  o  t  o       o             t  o  t 
e|----------------------------------------------------------------------------|
B|-------------1-1-1-1---3----1---0-----------0h1--(0)-(0)--------------------|
G|-0--------------------------0---0-----------0----(0)-(0)--------------------|
D|-2--2-----2-----------------0---0-----------0----(0)-(0)--------------------|
A|----3-----3--3-----------x------------------------x---x---------------------|
E|-------------------------x----3----3-----3--------x---x---------------------|

[Bridge]
e|--------------------------------------1---------------1-1-1-1-----3-----1---|
B|--5----5---5------5--------5-5--5-5---1----1----------1-1-1-1-----1-----1---|
G|--5--7---7---7----5-----7--5-7--5-5--------2----------2-----------------0---|
D|--7---------------------7--7-7--7-7------3---3-----3--3---------------------|
A|--0--------x---x-----0----------x---x-----------x--------------x-----x------|
E|-----------x---x----------------x---x-----------x--------------x-----x------|

e|----0-------------0-0-0-0-----3--(1)--0-------------------------------------|
B|----0h1-----------1-----------0--(1)--1-----3--------------(0)-(0)----------|
G|----0-------------0--------------(0)--0-----0---------0----(0)-(0)----------|
D|---------------2----------------------------0---------0----(0)-(0)----------|
A|-3-------3--x--------------x------x--------------x----------x---x-----------|
E|------------x--------------x------x------3----3--x--3----3--x---x-----------|

e|--------------------------------------1---------------1-1-1-1-----3-----1---|
B|--5----5---5------5--------5-5--5-5---1----1----------1-1-1-1-----1-----1---|
G|--5--7---7---7----5-----7--5-7--5-5--------2----------2-----------------0---|
D|--7---------------------7--7-7--7-7------3---3-----3--3---------------------|
A|--0--------x---x-----0----------x---x-----------x--------------x-----x------|
E|-----------x---x----------------x---x-----------x--------------x-----x------|

e|----0-------------0-0-0-0-----3--(1)--0-------------------------------------|
B|----0h1-----------1-----------0--(1)--1-----3-------------------------------|
G|----0-------------0--------------(0)--0-----0---------2/5-------------------|
D|---------------2----------------------------0-------------5/9--7------------|
A|-3-------3--x--------------x------x--------------x----------------7---------|
E|------------x--------------x------x------3----3--x--3-----------------------|


************************************

| x   Dead note
| (n) Ghost note
| h   Hammer-on
| p   Pull-off
| t   Tapping
| /   Slide up
| \   Slide down
| o   Wrist thump

************************************

            
            
Suggest correction
Creating personal tab
Creating personal tab
You can edit any tab online and save it as your Personal.

You can edit, replace or remove any tab part or add personal notes – all changes will be seen only by you.

Personal tabs can be accessed anytime from any device, even offline.
Learn more »
comments
print report bad tab
guest
You may want to rate the tab now too:
select rating
Wanna post a correction for this tab? Suggest correction