Oops, an error
Loading. Please wait.

Las Cosas Cambian Tab

7 views 1 this week
no commentswrite comment
1 2 3 4 5
3 more votes to show rating
add to favorites
launch autoscroll
font size
0
reset
how to read this tab
guitar tuner
Autoscroll
slow
fast
+/-
esc
set tempo
stop
Help us to improve Ultimate-Guitar.com Take our survey!
×
Solo La Intro Ke Esta Mal Tabulada...


E-------------------------------8-5-6--5h6h5------
B--5h6-6-5---5h6h5---5----5-6-8--------5-----86/8
G----------7------7----7-5------------------------
D-7-----------------------------------------------
A-------------------------------------------------
E-------------------------------------------------

E-----------------------
B----6-5---5-------4h5--
G--------7---7-6-7-----7
D-7-8-------------------
A-----------------------
E-----------------------


déjame tu huida y mañana llévate el dolor

E------------5
B--5h6-8-6-8--


P.D:

niun cri-cri-
pero ayudara a kien kiera darle un pokito mas de color...
Suggest correction
Give kudos to tab author, rate the tab!
1 2 3 4 5
comments
print report bad tab
guest
You may want to rate the tab now too:
select rating
Wanna post a correction for this tab? Suggest correction