Oops, an error
Loading. Please wait.

Las Cosas Cambian Chords

version 2
version 2

Whole song

33 views 3 this week
no commentswrite comment
1 2 3 4 5
3 more votes to show rating
add to favorites
launch autoscroll
font size
0
reset
transpose
0
reset
simplify chords
display chords
guitar tuner
×
Best way to learn
"Las Cosas Cambian"
Autoscroll
slow
fast
+/-
esc
set tempo
stop
Intro:Dm C A# A#9 A#/G A#/FA7 Dm

6 ------------------------------------------------
5 ------------------------------------------------
4 -7----------------------------------------------
3--------------------7---------------7-------7---5
2-----5-6---6---5-------5---6---5-----5-----------
1 ------------------------------------------------

6 ------------------------------------------------
5 ------------------------------------------------
4 ------------------------------------------------
3 ------------------------------------------------
2 5-6--- 8----------------------------------------
1 ----------------8-5-6 ------------5-- 6 -8-6-8 -


6 -------------------------------------------------
5 -------------------------------------------------
4 8-8 ---------------------------------------------
3----------------------7-----6-7--------7 ---------
2----------8 ---6-5----5------------5 -------------
1 -------------------------------------------------


     Dm       Dm/C               A#
A) En una cima están dos chicos
C           C7                F
se esta naciendo el cielo para dos
Gm             A7          Dm
y esa noche, tu inmensa calma
A#              A#/G      A7            Dm
fuimos dos nombres y sólo un alma
     Dm       Dm/C               A#
B) Y ahora resulta que no eres feliz
C                             F
creció esa niña y aprendió a cumplir
Gm             A7          Dm              Dm/C
y a pasar la vida siempre confundida
               A#                     A#/G
más no me preguntes si acaso es muy triste
          A7                           Dm
negaste tu llanto en tratar de no herirme
     Dm                   Dm/C            A#            A#9
C) Pero yo entenderé y aprenderé a vivir si tú te vas
C                                 F
yo no me moriré si en tus malditas alas volarás
A#            A7         Dm            Dm/C
pero las cosas cambian, la vida siempre paga
A#            A#/G      A7
déjame tu huida y mañana llévate el dolor

A#       C Dm  Dm/C  A#  A#9A7


     Dm             Dm/C        A#
A) Dices que nunca te importé, lo sé
C              C7             F
que son fantasías que me lo inventé
Gm                   A7 Dm            Dm/C
como aquellos días, que yo era tu vida
           A#                  A#/G
cuando llegabas tan sólo al pensarte
            A7                 Dm
cuando eras mía tan sólo al mirarte

C) Pero yo entenderé y aprenderé a vivir si tú te vas

yo no me moriré si en tus malditas alas volarás

pero las cosas cambian, la vida siempre paga

déjame tu huida y mañana llévate el dolor (BIS)
(Sube medio tono)

A#  F  C A7  C# G# A#  A#7

      D#m
D) Pero yo entenderé y aprenderé a vivir si tú te vas

yo no me moriré si en tus malditas alas volarás

pero las cosas cambian, la vida siempre paga

déjame tu huida y mañana llévate el dolor

llévate el dolor?.
Suggest correction
Give kudos to tab author, rate the tab!
1 2 3 4 5
comments
print report bad tab
guest
You may want to rate the tab now too:
select rating
Wanna post a correction for this tab? Suggest correction