Oops, an error
Loading. Please wait.

Amor De Escuela Tab

36 views 1 this week
no commentswrite comment
1 2 3 4 5
3 more votes to show rating
add to favorites
×
Save as Personal and add changes to this tab that will be seen only by you. Learn more ›
×
You can save this tab as Personal to edit and correct it or add notes. All changes will be seen only by you. Learn more »
save as personal
new!
launch autoscroll
font size
0
reset
how to read this tab
guitar tuner
Autoscroll
slow
fast
+/-
esc
set tempo
stop
Que onda me llamo Israel y ahora vengo aportando esta canción
Que si esta bien chida para recordar esos primeros Amores de
 La escuela y pues la verdad a mi si me conmueve.
Bueno ahí les va pero antes quiero decirles que esta canción
Se la dedico a una persona que es muy especial para mi: Esa
Persona se llama Sonia Jaquelyn Yonca Arvizu que es la persona
A la que amo con todo mi corazón pero no se lo he podido decir.
Bueno ahí les va
                  ¡¡¡TE AMO YONKY !!

INTRO:
           C
E---------------------------------------------------------
A---------------------------------------------------------
D---------------------------------------------------------
G---------------------------------------------------------
B-------13-13----13----------13---------------------------
E-12-10-------------10-12-10------------------------------
           Am
E---------------------------------------------------------
A---------------------------------------------------------
D---------------------------------------------------------
G---------------------------------------------------------
B-------13-------13-13---13----------13-------------------
E-12-10----12-10------------10-12-10----------------------
           F                                          G
E---------------------------------------------------------
A---------------------------------------------------------
D---------------------------------------------------------
G---------------------------------------------------------
B-13-12-10-13-12-10-10---10-12-13-12-10-10---12-13--------
E--------------------------------------------------10-15--

ESTROFA 1
C                   G
En el balcón de la escuela
F       G           C
Nos quedamos por un rato
F         G        C  Am
Y así hablamos a solas
F        G     C    G
Aquella linda mañana

ESTROFA 2
C                   G
Le dije que iba a besarla
F         G         C
Sonriendo bajo sus ojos
F          G         C   Am
Y me ofreció sus mejillas
F           G          C    G
Como quien pierde un tesoro

PRECORO
C                                  G
No se atrevía a mirarme y no me habló
F                   G            C    Am
Le dije que éramos novios, me entendió
F                  G
Y calló mi voz su beso
      C        Am
Me dejó en embeleso
F               G            C  G
Y con muchísima pena me abrazó

CORO
C                            G
Era grande la alegría de los dos
F                   G          C Am
En nuestras almas había felicidad
F                 G
Porque desde ese día
        C            Am
Fuimos dos que se querían
F                  G             C
Y así supimos por fin que es el amor

SE REPITE LA INTRO

PRECORO
C                                  G
No se atrevía a mirarme y no me habló
F                   G            C    Am
Le dije que éramos novios, me entendió
F                  G
Y calló mi voz su beso
      C        Am
Me dejó en embeleso
F               G            C  G
Y con muchísima pena me abrazó

CORO
C                            G
Era grande la alegría de los dos
F                   G          C Am
En nuestras almas había felicidad
F                 G
Porque desde ese día
        C            Am
Fuimos dos que se querían
F                  G             C   Am
Y así supimos por fin que es el amor
F                  G
Y así supimos el fin
           C         F G C
Que es el amoooooooor

Bueno eso fue todo y espero que les haya gustado
Cualquier comentario mándenme un mail a
chaquetaardiente@
Espero que algún día mi amor vea esta transcripción
Y se de cuenta de todo lo que yo siento por ella
        ¡¡¡TE AMO YONKY¡¡¡
Suggest correction
Give kudos to tab author, rate the tab!
1 2 3 4 5
comments
print report bad tab
guest
Wanna post a correction for this tab? Suggest correction