Oops, an error
Loading. Please wait.

Dame Bass Tab

152 views 1 this week
no commentswrite comment
1 2 3 4 5
3 more votes to show rating
add to favorites
launch autoscroll
font size
0
reset
guitar tuner
Autoscroll
slow
fast
+/-
esc
set tempo
stop
Help us to improve Ultimate-Guitar.com Take our survey!
×
Recuerden de usarla solo como aprendizaje
Algun error haganmelo saber, tambien cualquier intercambio de tabs.

Cuerdas E A D G
  M.M. = 98
|---------|----------------|------------------|-----------------|
|---------|-4---2-4----4---|------------------|-----------------|
|---------|---4----------4-|-5--5---5-4--4--4-|-2---0-2----2-0--|
|---------|----------------|------------------|---2-------------|


|------------------|-------------------------|
|---2---4----------|-------------------------|
|---------2--2--4--|-5--5---------5--5--5-5--|
|-0---2------------|--------5-7-5------------|


|--------------------------|--------------------------|
|--------------------2-4---|--------------------------|
|-4--4---0-2-0-4--4------4-|-5--5---------5--5-5--5---|
|--------------------------|--------5-7-5-------------|


|------------------------|------------------|---------------|
|--------------------2-3-|-4---2-4------2---|-4---2-4-------|
|-4--4---0-2-0-4--4------|---4--------4---4-|---4--------4--|
|------------------------|------------------|---------------|


|-------------------|--------------------|-------------------------|
|-2--2---2----------|-0--0---------------|-------------------------|
|----------0--0---0-|-------4-(4)--4--4--|-5--5---------5--5--5-5--|
|-------------------|--------------------|--------5-7-5------------|


|--------------------------|--------------------------|
|--------------------2-4---|--------------------------|
|-4--4---0-2-0-4--4------4-|-5--5---------5--5--5-5---|
|--------------------------|--------5-7-5-------------|


|------------------------|------------------|---------------|
|--------------------2-3-|-4---2-4------2---|-4---2-4-------|
|-4--4---0-2-0-4--4------|---4--------4---4-|---4--------4--|
|------------------------|------------------|---------------|


|-------------------|------------2-4---|----------------------|
|-2--2---2----------|------------------|-----------------2-4--|
|----------0--0---0-|-2--2--2--2-----2-|-0--0--0-0-0--0-------|
|-------------------|------------------|----------------------|


|-2---------------|----------------|-----------------------|
|----4--4-2-4---2-|----------2--1--|-0--0------0--0-----0--|
|-------------4---|-0--0---0-------|-------0-2--------0----|
|-----------------|----------------|-----------------------|


|------------------|--------------------|-2----------------|
|----------------2-|----------------2-4-|----4--4-2-4---2--|
|-4--4---4--4--4---|-0--0---0-0--0------|-------------4----|
|------------------|--------------------|------------------|


|----------------|--------------------|--------------------|
|----------2--1--|-0-------0--0-----0-|-----------------2--|
|-0--0---0-------|-----0-2--------0---|-4--4--0-2-4--4-----|
|----------------|--------------------|--------------------|


|------------------|------------------|--------------------|
|-4---2-4------2---|-4---2-4------2---|-2--2---2-----------|
|---4--------4---4-|---4--------4---4-|----------0--0---0--|
|------------------|------------------|--------------------|


|----------------|----------------|-------------------|
|----------------|-4---2-4----4---|-------------------|
|-2--2--2--2--2--|---4----------4-|-5--5---5-4--4--4--|
|----------------|----------------|-------------------|


|----------------|------------------|-------------------------|
|----------------|---2---4----------|-------------------------|
|-2---0-2----2-0-|---------2--2--4--|-5--5---------5--5--5-5--|
|---2------------|-0---2------------|--------5-7-5------------|


|--------------------------|--------------------------|
|--------------------2-4---|--------------------------|
|-4--4---0-2-0-4--4------4-|-5--5---------5--5--5-5---|
|--------------------------|--------5-7-5-------------|


|------------------------|------------------|---------------|
|--------------------2-3-|-4---2-4------2---|-4---2-4-------|
|-4--4---0-2-0-4--4------|---4--------4---4-|---4--------4--|
|------------------------|------------------|---------------|


|-------------------|------------2-4---|----------------------|
|-2--2---2----------|------------------|-----------------2-4--|
|----------0--0---0-|-2--2--2--2-----2-|-0--0--0-0-0--0-------|
|-------------------|------------------|----------------------|


|-2---------------|----------------|-----------------------|
|----4--4-2-4---2-|----------2--1--|-0--0------0--0-----0--|
|-------------4---|-0--0---0-------|-------0-2--------0----|
|-----------------|----------------|-----------------------|


|------------------|--------------------|-2----------------|
|----------------2-|----------------2-4-|----4--4-2-4---2--|
|-4--4---4--4--4---|-0--0---0-0--0------|-------------4----|
|------------------|--------------------|------------------|


|----------------|--------------------|--------------------|
|----------2--1--|-0-------0--0-----0-|-----------------2--|
|-0--0---0-------|-----0-2--------0---|-4--4--0-2-4--4-----|
|----------------|--------------------|--------------------|


|------------------|------------------|--------------------|
|-4---2-4------2---|-4---2-4------2---|-2--2---2-----------|
|---4--------4---4-|---4--------4---4-|----------0--0---0--|
|------------------|------------------|--------------------|


|----------------|-------------------|--------------------|
|----------------|----------0--0---0-|--------------------|
|-2--2--2--2--2--|-5--5---5----------|-4--4---4-4--4--4---|
|----------------|-------------------|--------------------|


|-------------------|------------------|--------------------|
|-------------------|------------------|--------------------|
|-5--5---5-5--5---5-|-4--4---4-4--4--4-|-3--3---3-3--3--3---|
|-------------------|------------------|--------------------|


|-----------------|----------------------|--------------------|
|-----------------|----------------------|--------------------|
|-2--2--2-4--4----|----------------------|-----------------1--|
|---------------0-|-(0)--0--0--0-0--0--1-|-(1)--1--1-1--1-----|


|---------------------|-3---------------|----------------|
|-----------------3-5-|----5--5-3-5---3-|----------3--2--|
|-1--1--1-1-1--1------|-------------5---|-1--1---1-------|
|---------------------|-----------------|----------------|


|----------------------|------------------|---------------------|
|-1--1------1--1-----1-|-0--0---0--0--0-3-|----------------3-5--|
|-------1-3--------1---|------------------|-1--1---1-1--1-------|
|----------------------|------------------|---------------------|


|-3---------------|----------------|---------------------|
|----5--5-3-5---3-|----------3--2--|-1-------1--1-----1--|
|-------------5---|-1--1---1-------|-----1-3--------1----|
|-----------------|----------------|---------------------|


|-------------------|------------------|-------------------|
|-0--0------------3-|-5---3-5------3---|-5---3-5------3----|
|-------1-3-5--5----|---5--------5---5-|---5--------5---5--|
|-------------------|------------------|-------------------|


|-------------------|----------------|----------------------|
|-3--3---3----------|----------------|-----------------3-5--|
|----------1--1---1-|-3--3--3--3--3--|-1--1--1-1-1--1-------|
|-------------------|----------------|----------------------|


|-3---------------|----------------|-----------------------|
|----5--5-3-5---3-|----------3--2--|-1--1------1--1-----1--|
|-------------5---|-1--1---1-------|-------1-3--------1----|
|-----------------|----------------|-----------------------|


|------------------|--------------------|-3----------------|
|-0--0---0--0--0-3-|----------------3-5-|----5--5-3-5---3--|
|------------------|-1--1---1-1--1------|-------------5----|
|------------------|--------------------|------------------|


|----------------|--------------------|--------------------|
|----------3--2--|-1-------1--1-----1-|-0--0------------3--|
|-1--1---1-------|-----1-3--------1---|-------1-3-5--5-----|
|----------------|--------------------|--------------------|


|------------------|------------------|--------------------|
|-5---3-5------3---|-5---3-5------3---|-3--3---3-----------|
|---5--------5---5-|---5--------5---5-|----------1--1---1--|
|------------------|------------------|--------------------|


|----------------|---------------------|-3----------------|
|----------------|-----------------3-5-|----5--5-3-5---3--|
|-3--3--3--3--3--|-1--1--1-1-1--1------|-------------5----|
|----------------|---------------------|------------------|


|----------------|----------------------|-------------------|
|----------3--2--|-1--1------1--1-----1-|-0--0---0--0--0-3--|
|-1--1---1-------|-------1-3--------1---|-------------------|
|----------------|----------------------|-------------------|


|--------------------|-3---------------|----------------|
|----------------3-5-|----5--5-3-5---3-|----------3--2--|
|-1--1---1-1--1------|-------------5---|-1--1---1-------|
|--------------------|-----------------|----------------|


|--------------------|-------------------|-------------------|
|-1-------1--1-----1-|-0--0------------3-|-5---3-5------3----|
|-----1-3--------1---|-------1-3-5--5----|---5--------5---5--|
|--------------------|-------------------|-------------------|


|------------------|-------------------|-----------------|
|-5---3-5------3---|-3--3---3----------|-----------------|
|---5--------5---5-|----------1--1---1-|-3--3--3--3--3---|
|------------------|-------------------|-----------------|


|---------------------|-3---------------|----------------|
|-----------------3-5-|----5--5-3-5---3-|----------3--2--|
|-1--1--1-1-1--1------|-------------5---|-1--1---1-------|
|---------------------|-----------------|----------------|


|----------------------|------------------|---------------------|
|-1--1------1--1-----1-|-0--0---0--0--0-3-|----------------3-5--|
|-------1-3--------1---|------------------|-1--1---1-1--1-------|
|----------------------|------------------|---------------------|


|-3---------------|----------------|---------------------|
|----5--5-3-5---3-|----------3--2--|-1-------1--1-----1--|
|-------------5---|-1--1---1-------|-----1-3--------1----|
|-----------------|----------------|---------------------|


|-------------------|------------------|-------------------|
|-0--0------------3-|-5---3-5------3---|-5---3-5------3----|
|-------1-3-5--5----|---5--------5---5-|---5--------5---5--|
|-------------------|------------------|-------------------|


|-------------------|-----------------*|
|-3--3---3----------|-----------------*|
|----------1--1---1-|-3--3--3--3--3---*|
|-------------------|-----------------*|


--------------------------------------------------------------------------------
Legend
------

 h  = hammer-on		 |  = bar
 p  = pull-off		||  = double bar
 b  = bend		||* = repeat start
 r  = bend release	*|| = repeat end
 /  = slide up/down	*|  = double bar (end)
[5] = nat. harmonic	 !  = repeat beat (¼,8th)
<5> = art. harmonic	!!  = repeat beat (16th)
 ~  = vibrato		 %  = repeat measure
 tr = trill		 :  = bar (freetime)
 T  = tap		du  = tremolo bar dip
 TP = trem. picking	 d  = tremolo bar down
 PM = palm muting	 u  = tremolo bar up
 S  = slap		ud  = tremolo bar inverted dip
 P  = pop		 =  = hold (bend or tremolo bar)
--------------------------------------------------------------------------------

********************************************************************************
* Power Tab Editor - 
********************************************************************************
Suggest correction
Give kudos to tab author, rate the tab!
1 2 3 4 5
comments
print report bad tab
guest
You may want to rate the tab now too:
select rating
Wanna post a correction for this tab? Suggest correction