Oops, an error
Loading. Please wait.

Hasta Que Vuelvas Tab

29 views 1 this week
no commentswrite comment
1 2 3 4 5
3 more votes to show rating
add to favorites
launch autoscroll
font size
0
reset
how to read this tab
guitar tuner
×
Best way to learn
"Hasta Que Vuelvas"
Autoscroll
slow
fast
+/-
esc
set tempo
stop
Esta es la nueva cancion de Luis Miguel , que incluyo
en su nuevo disco de recopilaciones, espero que les guste
ya que la saque con mucho esfuerzo y dedicacion para
la mujer que mas amo en este mundo, Para ti Mayra. 
Y dice así:

 Intro:

     Gm             F               Eb6

e|--10-8-8-8/10----------------------------|
b|--------------11-10-11-11/13---10--------|
g|----------------------------------12-12--|
D|-----------------------------------------|
A|-----------------------------------------|
E|-----------------------------------------|

 Gm             F                Eb6

e|--10-8-8-8/10----------------------------|
b|--------------11-10-11-11/13---10--------|
g|----------------------------------12-12--|
D|-----------------------------------------|
A|-----------------------------------------|
E|-----------------------------------------|

(La parte donde entra la orquesta es así y se puntea.)

Cm, F, Bb6, Gm, Cm, Dm6.

Después entra la voz que también se hace un pequeño arpegio de notas:

           Cm Dm6                 Gm  
Andaré tu risa que dejó tibio mi lecho
           Cm             F            Bb6
Buscaré tu llanto que perdieras en la noche
         Cm       F                Bb6  
Guardaré tu cuerpo que lleno mis alegrías
       Gm Cm         Dm6
Hasta que vuelvas amor .  (Hasta aquí se arpegian las notas)  

            Cm   Dm6              Gm  
Andaré el camino que corrías a mi lado
             Cm            F           Bb6
Buscaré el silencio que olvidaras en mis manos
            Cm     F                Bb6     
Guardaré la espera que pintaron mis poemas
       Gm Cm         Dm6
Hasta que vuelvas, amor
 
Coro:

          G6           Bm    
Hasta que vuelvas detengo el tiempo
Dm6       E7         Am7
Que nadie pise tu recuerdo
       Cm       F         Bb6    
Hasta que vuelvas junto a mis ojos
 Am                 Dm6
Hilando sueños esperare

(El puente se toca así)

Cm,  Dm6,  G , Cm ,  F,  Bb6,  Pc.

Cm,  F,  Bb6,   Gm,   Cm,  Dm6.

El solo va asi: 

e|------5-6
Suggest correction
Give kudos to tab author, rate the tab!
1 2 3 4 5
comments
print report bad tab
guest
You may want to rate the tab now too:
select rating
Wanna post a correction for this tab? Suggest correction