Oops, an error
Loading. Please wait.

Inolvidable Bass Tab

373 views 1 this week
no commentswrite comment
1 2 3 4 5
2 more votes to show rating
add to favorites
launch autoscroll
font size
0
reset
guitar tuner
×
Best way to learn
"Inolvidable"
Autoscroll
slow
fast
+/-
esc
set tempo
stop
  M.M. = 106
|---------|---------|----------------|------------------|
|---------|---------|----------------|--------1-2-3-----|
|---------|---------|-3----3---3-----|--------------1---|
|---------|---------|------------3-2-|-1----1-----------|


|-------------------|--------------|-----------------|
|-------------------|--------3--1--|-----------------|
|-3----3---3--------|--------6-----|-3---3---3-------|
|-------------3--2--|-1---1--------|------------3-2--|


|----------------|----------------|--------------|
|--------1-2-3---|----------------|--------3--1--|
|--------------1-|-3----3---3-----|--------6-----|
|-1----1---------|------------3-2-|-1---1--------|


|----------------|----------------|-----------------|
|----------------|-------1-2-3----|-----------------|
|-3----3---3-----|-------------1--|-3----3---3------|
|------------3-2-|-1---1----------|------------3-2--|


|---------------|-----------------|------------------|
|----------1-3--|-----------------|--------------0---|
|---------------|-3----3----3--4--|-5---------2------|
|-1---1---------|-----------------|------3-----------|


|-----------------|---------------|----------------|
|-----------------|---------------|----------------|
|-3----3----1--2--|-3-------3--2--|-1----1----4-5--|
|-----------------|------3--------|----------------|


|---------------|---------------|------------------|
|---------------|-----------3-1-|------------------|
|-6----6--------|---------------|-----------3--4---|
|-----------6-5-|-4----4--------|-4----4-----------|


|---------------|---------------|----------------|
|---------------|---------------|----------------|
|-5----5----3---|-----------1-2-|-3----3----1-2--|
|-------------4-|-3----3--------|----------------|


|----------------|---------------|-----------------|
|----------------|---------------|-----------------|
|-3----3----3-1--|-0----0----3-4-|-5----5----3-5---|
|----------------|---------------|-----------------|


|-----------------|---------------------|-----------------|
|-----------------|---------------------|-----------------|
|--------------3--|-5--(5)------------2-|-3----3----3-4---|
|-3----3----3-----|---------3-(3)--3----|-----------------|


|----------------|---------------|---------------|
|-------------0--|---------------|---------------|
|-5---------2----|-3----3----1-2-|-3-------3--2--|
|------3---------|---------------|------3--------|


|---------------|---------------|----------------|
|---------------|---------------|-----------3-1--|
|-1----1----4-5-|-6----6--------|----------------|
|---------------|-----------6-5-|-4----4---------|


|----------------|---------------|------------------|
|----------------|---------------|------------------|
|-----------3-4--|-5----5----3---|-----------1--2---|
|-4----4---------|-------------4-|-3----3-----------|


|-----------------|-----------------|---------------|
|-----------------|-----------------|---------------|
|-3----3----1--2--|-3----3----3--1--|-3---3--2--1---|
|-----------------|-----------------|---------------|


|-----------------|----------------|-----------------|
|-----------------|----------------|-------1-2-3-----|
|-----------------|-3----3---3-----|-------------1---|
|-4--(4)--4--3----|------------3-2-|-1---1-----------|


|----------------|---------------|----------------|
|----------------|----------1-3--|----------------|
|-3----3---3-----|---------------|-3---3---3------|
|------------3-2-|-1---1---------|-----------3-2--|


|----------------|----------------|----------------|
|-------1-2-3----|----------------|----------1-3---|
|-------------1--|-3----3---3-----|----------------|
|-1---1----------|------------3-2-|-1---1----------|


|-----------------|-----------------|------------------|
|-----------------|--------------0--|------------------|
|-3----3----3--4--|-5---------2-----|-3----3----1--2---|
|-----------------|------3----------|------------------|


|---------------|---------------|----------------|
|---------------|---------------|----------------|
|-3-------3--2--|-1----1----4-5-|-6----6---------|
|------3--------|---------------|-----------6-5--|


|---------------|-----------------|----------------|
|-----------3-1-|-----------------|----------------|
|---------------|-----------3--4--|-5----5----3----|
|-4----4--------|-4----4----------|-------------4--|


|---------------|---------------|-----------------|
|---------------|---------------|-----------------|
|-----------1-2-|-3----3----1-2-|-3----3----3-1---|
|-3----3--------|---------------|-----------------|


|---------------|----------------|------------------|
|---------------|----------------|------------------|
|-0----0----3-4-|-5----5----3-5--|--------------3---|
|---------------|----------------|-3----3----3------|


|---------------------|----------------|-----------------|
|---------------------|----------------|-------------0---|
|-5--(5)------------2-|-3----3----3-4--|-5---------2-----|
|---------3-(3)--3----|----------------|------3----------|


|---------------|---------------|----------------|
|---------------|---------------|----------------|
|-3----3----1-2-|-3-------3--2--|-1----1----4-5--|
|---------------|------3--------|----------------|


|---------------|---------------|-----------------|
|---------------|-----------3-1-|-----------------|
|-6----6--------|---------------|-----------3-4---|
|-----------6-5-|-4----4--------|-4----4----------|


|---------------|-----------------|------------------|
|---------------|-----------------|------------------|
|-5----5----3---|-----------1--2--|-3----3----1--2---|
|-------------4-|-3----3----------|------------------|


|-----------------|--------------|------------------|
|-----------------|--------------|------------------|
|-3----3----3--1--|-3---3--2--1--|------------------|
|-----------------|--------------|-4--(4)--4--3-----|


|----------------|----------------|--------------|------------|
|----------------|----------------|--------------|------------|
|-3----3-----1-2-|-3----3---3---1-|-3---3--2--1--|------------|
|----------3-----|------------3---|--------------|-4----3-----|


|---------------|----------------|-----------------|
|---------------|-------1-2-3----|-----------------|
|-3---3---3-----|-------------1--|-3----3---3------|
|-----------3-2-|-1---1----------|------------3-2--|


|---------------|---------------|-----------------|
|----------1-3--|---------------|-------1-2-3-----|
|---------------|-3---3---3-----|-------------1---|
|-1---1---------|-----------3-2-|-1---1-----------|


|----------------|---------------|----------------|
|----------------|----------1-3--|----------------|
|-3----3---3-----|---------------|-3---3---3------|
|------------3-2-|-1---1---------|-----------3-2--|


|----------------|----------------|----------------|
|-------1-2-3----|----------------|----------1-3---|
|-------------1--|-3----3---3-----|----------------|
|-1---1----------|------------3-2-|-1---1----------|


|---------------|----------------|-----------------|
|---------------|-------1-2-3----|-----------------|
|-3---3---3-----|-------------1--|-3----3---3------|
|-----------3-2-|-1---1----------|------------3-2--|


                  M.M. = 80     M.M. = 77
|---------------|-------------|---*|
|----------1-3--|-------------|---*|
|---------------|-3----(3)----|---*|
|-1---1---------|-------------|---*|


--------------------------------------------------------------------------------
Legend
------

 h  = hammer-on		 |  = bar
 p  = pull-off		||  = double bar
 b  = bend		||* = repeat start
 r  = bend release	*|| = repeat end
 /  = slide up/down	*|  = double bar (end)
[5] = nat. harmonic	 !  = repeat beat (¼,8th)
<5> = art. harmonic	!!  = repeat beat (16th)
 ~  = vibrato		 %  = repeat measure
 tr = trill		 :  = bar (freetime)
 T  = tap		du  = tremolo bar dip
 TP = trem. picking	 d  = tremolo bar down
 PM = palm muting	 u  = tremolo bar up
 S  = slap		ud  = tremolo bar inverted dip
 P  = pop		 =  = hold (bend or tremolo bar)
--------------------------------------------------------------------------------
Suggest correction
Give kudos to tab author, rate the tab!
1 2 3 4 5
comments
print report bad tab
guest
You may want to rate the tab now too:
select rating
Wanna post a correction for this tab? Suggest correction