Oops, an error
Loading. Please wait.

Perfidia Tab

version 1
version 1

Whole song

123 views 1 this week
no commentswrite comment
1 2 3 4 5
3 more votes to show rating
add to favorites
launch autoscroll
font size
0
reset
how to read this tab
guitar tuner
×
Best way to learn
"Perfidia"
Autoscroll
slow
fast
+/-
esc
set tempo
stop
Bien esta es mi primera transcripcion y espeor que les guste
fue una de las primeras canciones que aprendi y espero que les guste
 si tiene erros avisenme y asi fue como la aprendi


asi empieza
intro: [ch]G [ch]Em[/ch] LA [/ch] [ch]D7[/ch]x2
e|--7--8--10--10--10--8--8--7--7--5--5---|
b|--8--10-12--12--12--10-10-8--8--7--7---|
g|--------------------------------------7|

e|--7--8--10--10--10--8--8--7--7--5--5---|
b|--8--10-12--12--12--10-10-8--8--7--7---|
g|--------------------------------------7|

  [ch]G [ch]Em[/ch] LAm[/ch]
Mujer,
    [ch]D7       [ch]G[/ch]     [ch]Em[/ch]    LAm[/ch]
Si puedes tu con Dios hablar,
   [ch]D7        [ch]G[/ch]       MIm[/ch]
Pregúntale si yo alguna vez
[ch]Am          [ch]D7[/ch]     SOL[/ch]
Te he dejado de adorar.

e|--7--8--10--10--10--8--8--7--7--5--5---|
b|--8--10-12--12--12--10-10-8--8--7--7---|
g|--------------------------------------7|
     [ch]G [ch]Em[/ch] LAm[/ch]
Y al mar,
  [ch]D7        [ch]G[/ch]   [ch]Em[/ch] LAm[/ch]
Espejo de mi corazón,
    [ch]D7             [ch]G[/ch]     MIm[/ch]
Las veces que me ha visto llorar
[ch]A          [ch]D7[/ch]      SI7[/ch]
La perfidia de tu amor...
      [ch]Am[/ch]
Te he buscado dondequiera que yo voy,
              [ch]B7[/ch]
Y no te puedo hallar,
     [ch]Am[/ch]
Para qué quiero otros besos
                            [ch]B7[/ch]      [ch]D7[/ch]
Si tus labios no me quieren ya besar.

  [ch]G [ch]Em[/ch] LAm[/ch]
Y tú,
[ch]D7               [ch]G[/ch]   [ch]Em[/ch]  LAm[/ch]
Quien sabe por dónde andarás
[ch]D7            [ch]G[/ch]         MIm[/ch]
Quien sabe qué aventura tendrás
     [ch]Am   [ch]D7[/ch]      SOL[/ch]
¡Qué lejos estás de mí...!

e|--7--8--10--10--10--8--8--7--7--5--5---|
b|--8--10-12--12--12--10-10-8--8--7--7---|
g|--------------------------------------7|

e|--7--8--10--10--10--8--8--7--7--5--5---|
b|--8--10-12--12--12--10-10-8--8--7--7---|
g|--------------------------------------7|


Espero que les aya gustado y si tienen una duda
llamenme mi correo es erik_missael@
Suggest correction
Give kudos to tab author, rate the tab!
1 2 3 4 5
comments
print report bad tab
guest
You may want to rate the tab now too:
select rating
Wanna post a correction for this tab? Suggest correction