Oops, an error
Loading. Please wait.

Con Mi Trono A Cuestas Tab

17 views 3 this week
no commentswrite comment
1 2 3 4 5
3 more votes to show rating
add to favorites
×
Save as Personal and add changes to this tab that will be seen only by you. Learn more ›
×
You can save this tab as Personal to edit and correct it or add notes. All changes will be seen only by you. Learn more »
save as personal
new!
launch autoscroll
font size
0
reset
how to read this tab
guitar tuner
Autoscroll
slow
fast
+/-
esc
set tempo
stop
INTRO

----5---5-----5---5-----3---3-----2---2-----------------
--7---7---7-5---5---5-3---3---3-2---2---2-------0-------
----------------------------------------------2---2-----
--0-----------------------------------------0-------0---
------------4---------2---------------------------------
--------------------------------2---------3-------------

-0-------0---------------------------
---3---3---3---------0---------3-2---
-----2-------------0---0-----2-----2-
-----------------4---------2---------
---------------2---------0-----------
-2-----------0-----------------------


D                      A*        F*
Flotando en resaca me animo a firmar
    Bm                  G
las cuatro palabras que dije en el bar.
   Dadd9              F7 
Verdades de peso que aplastan mentiras.
  Emadd9                      A(sus4)
A veces los sueños no son pesadillas

Y sé que en tu historia, que tiene un guión,
el corto episodio lo interpreto yo.
Los textos más largos están reservados.
Tus labios cobardes dibujan el vado.

  G                 Dadd9
Y tú reinabas en la barra
             Em
rechazando a reyes
       A
que buscaban reinas.
   G                Dadd9
Yo sólo me pedí una caña
             Em
con mirada ausente
     A              D
y mi trono a cuestas

------2-0-2-0-----5---2---------------------------------
-----3--------3-5---2---2-------3-3-0-----------0-----0-
----2-------------------------4-------4-------2---2-----
--0-------------------------4-----------4---0-------0---
----------------4---1-----2-----------------------------
------------------------------------------3-------------

-------0-------------0-------------------------------
-----3---3---3---------0---0---------0---------3-2---
---2-------2-------2-----2---------0---0-----2-----2-
-----------------3---------------4---------2---------
-------------------------------2---------0-----------
-2-------------1-------------0-----------------------


Afirmo sin dudas que hablar del amor
causaba respeto por miedo al dolor.
Mas ahora descubro, pasados los años,
que nada consigo sintiendo y callando.

En mundos distintos andamos los dos,
[ch]B aspiro A[/ch] [ch]A[/ch] luna, tú añoras el sol.
Dos mundos distintos, dos fuerzas convexas.
Añoro las curvas de tus diferencias.

Sonaba Aserejé a las doce
y me animé a decirlo
con mi trono a cuestas.
Quizás me equivoqué ayer noche
al confesar mi ritmo
a la linda reina
Sonaba Aserejé a las doce
y me animé a decirlo
con mi trono a cuestas.
Quizás me equivoqué ayer noche
al confesar mi ritmo
y esperar respuesta.


INTRO

   A*   F*  Dadd9 F7   Emadd9 Asus4
---5----2----0-----0-----0------0----
---5----2----3-----0-----0------3----
-------------2-----2-----0------2----
-------------0-----3-----4------2----
---4----1----------3-----2------0----
-------------0-----1-----0-----------


maunu77@
Suggest correction
Give kudos to tab author, rate the tab!
1 2 3 4 5
comments
print report bad tab
guest
Wanna post a correction for this tab? Suggest correction