Oops, an error
Loading. Please wait.

Nostalgias De Bossa Chords

343 views 1 this week
no commentswrite comment
1 2 3 4 5
3 more votes to show rating
add to favorites
launch autoscroll
font size
0
reset
transpose
0
reset
display chords
guitar tuner
×
Best way to learn
"Nostalgias De Bossa"
Autoscroll
slow
fast
+/-
esc
set tempo
stop
A)

1-------------------------
2---5h7-------------------
3-2--------12-9-11-7-6-6h7
4-------------------------
5-------------------------
6-------------------------

1---------------------------------
2---10h12--13p12-10-12-8-7-7h8p7h8
3-7-------------------------------
4---------------------------------
5---------------------------------
6---------------------------------

1---7--------8h9-----
2--------------------
3-4---7-6--6-----9-8-
4--------------------
5--------------------
6--------------------

1-7-9-10p9p7-7-9-7--10p9p7---------
2--------------------------11-11p10
3----------------------------------
4----------------------------------
5----------------------------------
6----------------------------------


1--------------------------
2---3h7--------------------
3-2--------12-9-11-7--6-7--
4--------------------7-----
5--------------------------
6--------------------------

1-----------------------------------------------
2---7-8-10-11-12-12-12--13-10-12-8-7-7h8--8h10p8
3-7---------------------------------------------
4-----------------------------------------------
5-----------------------------------------------
6-----------------------------------------------

1---6h7----------8h9----
2-----------------------
3-4-----4-7-6--6-----9-8
4-----------------------
5-----------------------
6-----------------------

1-7-9-10p9p7-7-9-10h14--
2-----------------------
3-----------------------
4-----------------------
5-----------------------
6-----------------------

1-14p12-10--9-10-7h9--7----------
2-----------------------10-9-10-8
3--------------------------------
4--------------------------------
5--------------------------------
6--------------------------------

1-----------------------------10--9-10-9
2-7-10h12--12p11-12-13-14--10-----------
3---------------------------------------
4---------------------------------------
5---------------------------------------
6---------------------------------------

1--------------------7--7p6-7-8-9--5-7h12-10
2-10h12-10-9-10-8--7------------------------
3-------------------------------------------
4-------------------------------------------
5-------------------------------------------
6-------------------------------------------


B)

1---------------------10-9-7-6-9---------------
2---3h7-7-5-7-8-7-5-7------------8-7-----------
3-2----------------------------------7h9-7-9h11
4----------------------------------------------
5----------------------------------------------
6----------------------------------------------

1---7-7-7-7-7-8-5-5-5-7-3-2-0---0--3h5--5h7-3---
2-----------------------------0-----------------
3-7---------------------------------------------
4-----------------------------------------------
5-----------------------------------------------
6-----------------------------------------------

1------------------------------------------------
2-12p11-12p11-12p11-12p11-12p11-12p11-12p11-12p11
3------------------------------------------------
4------------------------------------------------
5------------------------------------------------
6------------------------------------------------

1----9-9----7-7----7-8-8-7--9-10-7-9-7-5-7-2-2-5-2-0-0
2-12-----10-----10------------------------------------
3-----------------------------------------------------
4-----------------------------------------------------
5-----------------------------------------------------
6-----------------------------------------------------

1---------0-3-5-6-/
2-----0-3---------/
3-0-2-------------/
4-----------------/
5-----------------/
6-----------------/

1-7-10h14-14-14-15-12-14-10-9-9-7-7-6-9-7-10
2-------------------------------------------
3-------------------------------------------
4-------------------------------------------
5-------------------------------------------
6-------------------------------------------

1-14-14-15-14-15h17-17-15-14-12-11-14----12----10---8---7-7-7
2-------------------------------------------------------0-0-0
3-------------------------------------12----10----8---7-7-7-7
4------------------------------------------------------------
5------------------------------------------------------------
6------------------------------------------------------------

1----------/---7-7---7-7---7-7---7-7---7-7-7
2-8-8h10-8-/---7-7---7-7---7-7---7-7---7-7-7
3----------/-7-----7-----7-----7-----7------
4----------/--------------------------------
5----------/--------------------------------
6----------/--------------------------------

1-7h9---9--9--9--8--8--7
2-7h9---9--9--9--8--8--7
3-----------------------
4-9h11--11-11-11-10-10-9
5-----------------------
6-----------------------

1----------------------/
2-0-2-3-0-3-3h7--7-7---/
3----------------------/
4----------------------/
5----------------------/
6----------------------/

( Se repite la parte A, nada mas que
 canta una octava más abajo las mismas notas.)


Alguna duda o comentario, a juanpe_fes_11@
Suggest correction
Give kudos to tab author, rate the tab!
1 2 3 4 5
comments
print report bad tab
guest
You may want to rate the tab now too:
select rating
Wanna post a correction for this tab? Suggest correction