Oops, an error
Loading. Please wait.

Como No Voy A Decir Tab

67 views 3 this week
no commentswrite comment
1 2 3 4 5
3 more votes to show rating
add to favorites
launch autoscroll
font size
0
reset
how to read this tab
guitar tuner
Autoscroll
slow
fast
+/-
esc
set tempo
stop
Help us to improve Ultimate-Guitar.com Take our survey!
×
Ritmo: Vals pasaje
Tunning: Em y G

Parte 1
 B7sus4 Em E7      Am4add9    Am4       Am4add9    Em     Am4     B
e ---------0-7-12-14-15--------------10-12-14----------8-10-12----7-8-10|
B ---------------------------------12----------------10----------8------|
G -------------13-14-16----------12----------------11-----------9-------|
D --------2--------------------14----------------12------------9--------|
A -------2--------------------------------------------------------------|
E ------0---------------------------------------------------------------|

Parte 2
   Am       Em      B7      Em       E7
e -8--10-8--7--8--7-5--7-5-----------0-|
B -10-12-10-8--10-8-7--8-7-4-3-----12--|
G -------------------------2-1---12----|
D -------------------------------------|
A -------------------------2-2---------|
E -----------------------------(0)-----|

Parte 3
     Em  E7   Am            Em           B7       Em
e ----0-7-12-14-15-------10-12-14-------8-10-12----7-8-10|
B ---------------------12-------------10----------8------|
G --------13-14-16---12-------------11-----------9-------|
D ---2-------------14-------------12------------9--------|
A --2----------------------------------------------------|
E -0-----------------------------------------------------|

Parte 4
   Am       Em      B7       Em
e -8--10-8--7--8--7-5--7-5-3-0-0-|
B -----------------------------5-|
G -----------------------------4-|
D -------------------------------|
A -------------------------------|
E -8--------7-------5------3-0-0-|

Punteo 1
B7       Em             B7           Em
Si en mi mente haya existido algún motivo
        G6           C6  F#7     B
tan especial, para hacer una canción
     Am6           C6        B7       Am6
eres tu y a grito abierto lo digo
        B7                      Em
y si lo dudas pregúntale al corazón (bis)


Punteo 2
E7                          Am G#5  C6
Como no voy a decir, que me gustas
                Am6                          Em   G5  G
Como no voy a decir que eres centro de atracción
               G6               C6       B7   Am6
Si por primera vez cuando aquel día te miré
            B7           G6  B7       Em          G5  G
mi alma tranquila tuvo un síntoma de amor  [bis]


Parte1, Parte 2, parte3 y Parte 4

Punteo 1
      Em             B7           Em
Hoy un ángel se ha cruzado en mi camino
      G6        C6     F#7  C7
tan bonita de figura escultural
        Am6      C6          B7
muy juvenil de mejillas sonrosadas
        B7sus4     B7         Em
y de castigo una carita angelical (bis)


Punteo 2
E7                         Am G#5   C6
Como no voy a decir que me gustas
                Am6                        Em     G5  G
como no voy a decir que a tu lado quiero estar
                       G6       B7       Am6
dale una primicia a mi ser enamorado
             B7              G6 B7     Em
si entre mis brazos quieres dormir y soñar (bis)
A            B7              G6 B7     Em
si entre mis brazos quieres dormir y soñar
A            B7              G6 B7     Em
si entre mis brazos quieres dormir y soñar

Final:    Am6        Em7       B7       Em6

La canción está escrita para dos guitarras,
por lo tanto una acompañará con los acordes
y la otra ejecutará los punteos.

El tiempo del vals llanera es 6/8 balada.
Es un acompañamiento lento sin hacer notar
fuertemente  el cambio de acordes a oído.

Los Punteos son los siguientes:

Punteo 1
e ----------------------7-7
B ---12--12--12--------8--8
G -12--12--12-12-11-9-9---9
D -------------------------
A -------------------------
E -------------------------

e--12-12-11h12-11-11-15-14-12-----12---------------7
B----------------12-------------12--12-12---------8-
G-----------------------------12------12-12-11-9-9--
D---------------------------------------------------
A---------------------------------------------------
E---------------------------------------------------

e ---7-12-12-10--10--10-12-11-11-11-11-11
B --8----------------------11-11-11-11-11
G -9-----------11-11----12-11-11-11-11-11
D ---------------------------------------
A ---------------------------------------
E ---------------------------------------

Muy juvenil?
e---------------------------------------------------
B---------10-------10-10-10-10---10-13-12-10--------
G-11-11-12-11-11-12------------12-----------12-11-11
D---------------------------------------------------
A---------------------------------------------------
E---------------------------------------------------

                                        * Em  Emmaj7 G5    G
e --------------------------------------------------------------
B ----------10-13-12-12-10-10------------12-12-10-10------------
G -11-11-12------------------12-12-11-11------------12-12-11-11-
D --------------------------------------------------------------
A --------------------------------------------------------------
E --------------------------------------------------------------

Punteo 2

Como no voy a decir?
e -----12-12-12-12-15-14-15-15-15-15-15---
B ---12------------------17-17-17-17-17-15
G -12--------------------17-17-17-17-17-15
D ----------------------------------------
A ----------------------------------------
E ----------------------------------------

e -15-15-14-11-12-10-9-9---12-12-12-12-14-12-14-10-12-7
B -----------------------14----------------------------
G ---------------------14----------------------10-11-9-
D -----------------------------------------------------
A -----------------------------------------------------
E -----------------------------------------------------

e ---7-7-7-8-7-8-7--7-8-12-10-8-7-5------
B --8------------------------------------
G -9--------------------12-11-9-7-5-11-11
D ---------------------------------------
A ---------------------------------------
E ---------------------------------------

e -----------------------------------------------------
B ---10-12-13-12-10-10-10-10-10-12-13-12-12-10---------
G -12------------9--9-9------------------------12-11-11
D -----------------------------------------------------
A -----------------------------------------------------
E -----------------------------------------------------

Acordes:

   B7sus4  Am4add9    Am4  B   G6 o G6
e ---2--------8--------5---7---0----0---
B ---0--------5--------5---7---0----3---
G ---2--------5--------5---8---0----4---
D ---2--------7--------7---9---0----5---
A ---2--------5--------5---9---2----5---
E ---0--------5--------5---7---3----0---

    C6 o C6  Am6 o Am6 o Am6  G#5  o G#5  o G#5 
e --0----0----3-----3----5-----4------4------x---
B --1----5----1-----1----5-----3------1------1---
G --0----5----2-----2----5-----5------1------1---
D --2----5----2-----2----3-----6------1------1---
A --0----0----0-----x----0-----x------3------x---
E --0----0----0-----1----0-----4------x------x---


   Em o Em Emmaj7 o Emmaj7 G5  o G5  G o G o G  Em6  Em7
E -3----7----0-------7------3----7---3---3---7--0----0
B -5----8----0-------8------0----8---3---3---8--1----3
G -4----9----0-------8------0----7---0---4---7--0----0
D -5----9----1-------9------1----9---0---5---5--2----2
A -3----7----2-------0------2----7---2---5---5--2----2
E -3----7----0-------0------3----7---3---3---5--0----0

También se puede trabajar con los acordes que estan en el enlace:


lo importante es que suene bien y que se pueda tocar de manera original.
Algunos acordes que pueden utilizarse en acompañamiento con cuatro
están en el enlace:


Alguna duda, sugerencia, comentario o correción a mi correo personal:
tfajemsebasdol89@

tfajemsebasdol89@
Suggest correction
Give kudos to tab author, rate the tab!
1 2 3 4 5
comments
print report bad tab
guest
You may want to rate the tab now too:
select rating
Wanna post a correction for this tab? Suggest correction