Oops, an error
Loading. Please wait.

El Accidente Tab

120 views 1 this week
no commentswrite comment
1 2 3 4 5
3 more votes to show rating
add to favorites
launch autoscroll
font size
0
reset
how to read this tab
guitar tuner
×
Best way to learn
"El Accidente"
Autoscroll
slow
fast
+/-
esc
set tempo
stop
         Sin duda uno de los mejores
    merengues hechos por bachatero alguno,y
     es muy colorido en sentido musical.

                x3
e-------------------------------------------0-0-0-0---0------ 3-----3-
b--0-3-0-1-1-1-3-1-0-1-0----1-1------0-1-3-5-3-1-0---1-1---- 3-----5--
g-0----------------------0-2-2-2----0---------------2------ 4--4--5---
d---------------------------------------------------------- ----------
a--------------------------------------------------------- ---------
e--------------------------------------------------------- ---------

e---3-----3------4-----5--
b--3-----5------3-----5--
g-4--4--5---5--4--4--5--5
d------------------------
a------------------------
e------------------------
Suggest correction
Give kudos to tab author, rate the tab!
1 2 3 4 5
comments
print report bad tab
guest
You may want to rate the tab now too:
select rating
Wanna post a correction for this tab? Suggest correction