Oops, an error
Loading. Please wait.

Loco De Amor Tab

675 views 1 this week
no commentswrite comment
1 2 3 4 5
3 more votes to show rating
add to favorites
launch autoscroll
font size
0
reset
how to read this tab
guitar tuner
×
Best way to learn
"Loco De Amor"
Autoscroll
slow
fast
+/-
esc
set tempo
stop
El requinto usa el Capo en el 7mo traste

E---7-7h12-7-7----------10-10h12-10-10---------7-7h12-7-7-----
B--8-----------8------10---------------10-----8-----------8---
G-9--------------x2-11--------------------x2-9--------------x2

E-----10-10h12-10-10---------12h14-12-12--------14-14h17-14-14--
B---10--------------10-----12-----------12----15--------------15
G-11------------------x2-12---------------x2-14----------------x2

E------15-15h19-15-15-----------14-14h17------------------17-14----
B---17---------------17--------15-----------15---15--15--15-----15--
G-16--------------------x2---14-----------14---14--14--14-----------

E-----------------19-15-----------------------17-14----
B---17--17--17--17-----17--------15--15--15--15-----15--
G-16--16--16--16----------X2---14--14--14--14-----------

E-----14-14h17-14----------15-15h19--------------19----15------
B---15------------15-----17----------------17--17----17-----17-
G-14-------------------16-------------16-16--16----16-----16---

E------------17-----14--------------12-12h14-12-12-------
B------15--15-----15-----15-------12---------------12----
G-14-14--14----114-----14---X2--12--------------------X2-

E-----10-----10---10-------7---7--7--------10-------12-
B---10-----10---10--------8---8--8-------10---10-10----
G-11-----11-----------X2-9---9------X2-11--------------

E-10h12--8-8h10-8--7-7h8-7--I-7h8-7---------------------I
B---------------------------I-------10-10h12-10--8-8h10-I
G---------------------------I---------------------------I

E--8-7-----------------
B-----10-8-10-8-7-----
G-----------------8-9-

Em                                        D
Tu tienes un encanto que a cualquiera transforma  por eso yo ando loco
             Em                                       D
ando loco de amor  hasta de madrugada camino por tu barrio   ya piensa
                              Em
el vecindario que yo soy un ladron   tu que sabes lo que hago dile que
        D                                           Em
no soy malo   lo que pasa es que te amo y perdi la razon   tu que sabes
                             D
lo que hago dile que no soy malo  lo que pasa es que te amo y perdi la
 Em           C                   Em              C                  Em
razon  Ahora todos se acuestan temprano  porque temen que se lo ven raro
 B7            Em      B7            Em          C               Em
algo se puede robar   algo se puede robar  la patruya me esta vigilando
       C                      Em
esta pendiente de todo lo que hago
       B7       Em             B7       Em
para poderme arrestar   para poderme arrestar
                E7                    Am                 D
Pero se van a quedar con los crespos hecho   porque la semana entrante
      G                                          F#
me disfrasere   voy a llegar diciendo que soy jardinero   y todas las
   B7                                        Em
mañanitas  cuando tu salgas en batica  Yo te vere
   C  Em           C   B7        C  B7    Am Em
yo te vere      yo te vere    yo te vere corazon
   C  Em           C   B7        C  B7        Am Em
y te hablare    y te hablare  y te hablare de mi amor
   C  Em           C   B7        C  B7    Am Em
yo te vere      yo te vere    yo te vere corazon
   C  Em           C   B7        C  B7        Am Em
y te hablare    y te hablare  y te hablare de mi amor

E-----10-10-12-----------------------------------------7------7h8-7-
B---10------------10--10--10--10--10------8-8-8-8-8--7---8-10-------
G-11------------11--11--11--11--11-------9-9-9-9-9------------------

E-----10-10h12-10--------10h12-10--10-10-10--------------12h14-----
B---10-----------------10-------------------10---------12-----------
G-11-----------------11------------------------11----12-----------

E-----12h14-12-12-------------10-10h12-10-10---------7-7h12-7-7----
B---12------------12--------10---------------10-----8-----------8--
G-12----------------------11--------------------x2-9--------------x2

E-----10-10h12-10-10----------12h14-12-12-----------14-14h17-14-14---
B---10---------------10-----12-----------12-------15--------------15-
G-11--------------------x2-12---------------x2--14------------------x2

E-----15-15h19-15-15---------15h19-------19-19-19-17-15-15h17-
B---17--------------17-----17---------------------------------
G-16---------------------16-----------------------------------
          Estos son los numerous del solo
E---14-12-14-15-14-15-17-15-14-15-14-12-14-12-10-12

E-10h12--8-8h10-8--7-7h8-7--I-7h8-7---------------------I
B---------------------------I-------10-10h12-10--8-8h10-I
G---------------------------I---------------------------I

E-8-7-----------------------7----7------10-----10--------
B-----10-8-10-8-7-----------8----8------10-----10--------
G-----------------8-9-----9----9-----11-----11-----------

E-----12------12------7---7-----10h12--8-8h10-8--7-7h8-7--I
B---12--12--12-------8-8-8--------------------------------I
G-12------12--------9---9---------------------------------I

E-7h8-7---------------------I-8-7-----------------
B-------10-10h12-10--8-8h10-I-----10-8-10-8-7-----
G---------------------------I-----------------8-9-

Em                                     D
Yo tengo muchos planes para amarte mi vida     y si alguno me falla
              Em                                        D
practico los demas  al frente de tu casa pondra una tiendesita
                                 Em
solo con el pretesto de poderte mirar   las cosas que tu compra te la
           C                                           Em
doy con caricias  yo se que tu me paga con amor y algo mas  las cosas
                               C
que tu compra te la doy con caricias  yo se que tu me paga con amor
       Em
y algo mas
          C                Em          C                 Em
Por las tardes me vuelvo cartero  y en una bicicleta te llevo
 B7                 Em      B7                 Em
todas mi cartas de amor    todas mi cartas de amor
C                     Em       C                      Em
para no marcharme tan lijero   tu me dice delante tu viejo
       B7        Em           B7        Em
tomese un tinto señor  tomese un tinto señor
                  E7          Am                         D
Me voy hacer el enfermo del corazon  para que el medico diga que si
     G                                          F#
es verdad   que tengo un mal que solo se puede curar  con una linda
    B7
muchachita que vive alla en una casita y en la recepta me ponga
      Em
tu direccion
   C   Em       C   B7        C     B7    Am Em
Y asi podre   y asi podre  curarme de este dolor
C  Em         C   B7      C      B7      Am Em
y dejare      y dejare    de ser un loco de amor
   C   Em       C   B7        C     B7    Am Em
Y asi podre   y asi podre  curarme de este dolor
C  Em         C   B7      C      B7      Am Em
y dejare      y dejare    de ser un loco de amor

E--------7-7-7-7-8-10-10h12-10-I-10h12-10-10-10-8-7-7h8-7-
B-7-8-10-----------------------I--------------------------
G------------------------------I--------------------------

E-----------------------------
B-10h12-10-8-8h10-8-7-7h8-7---
G-----------------------------
   Estos son los numerous del solo final
E-7-8-10-12-10-12-14-12-14-15-14-15-17--I--8-7-----------------7-
B---------------------------------------I------10-8-10-8-7-----8-
G---------------------------------------I------------------8---9-
Suggest correction
Give kudos to tab author, rate the tab!
1 2 3 4 5
comments
print report bad tab
guest
You may want to rate the tab now too:
select rating
Wanna post a correction for this tab? Suggest correction