Oops, an error
Loading. Please wait.

Simplemente Yo Te Amo Tab

103 views 1 this week
no commentswrite comment
1 2 3 4 5
3 more votes to show rating
add to favorites
launch autoscroll
font size
0
reset
how to read this tab
guitar tuner
Autoscroll
slow
fast
+/-
esc
set tempo
stop
[ch]F-[ch]C[/ch]-[ch]Dm[/ch]-LA#[/ch]

INTRO:

E----------------------------------------------------------------------------------------------0-6-0-6-0-/
B---------------------10-11-10-11-10----------7-9-7-9-7----------7-8-7-8-7-6-6-6--------------/
G-10-10-10-10-10----------------------9-9-9---------------7-7-7------------------------------------/
D----------------------------------------------------------------------------------------------------------/
A----------------------------------------------------------------------------------------------------------/
E----------------------------------------------------------------------------------------------------------/

E-----------8-9-8-9-8----8h11-7-8-7-8-7----7h10-0-6-0-6-0-0h6------------------------------/
B-9-9-9------------------------------------------------------------------6------6--------------------/
G-----------------------------------------------------------------------------------0--------------------/
D-------------------------------------------------------------------------------7------------------------/
A---------------------------------------------------------------------------------------------------------/
E---------------------------------------------------------------------------------------------------------/

Con la cejilla en el quinto traste 


[ch]F[/ch]                                                        [ch]C[/ch]
Hago un brindis por aquellos              que te hablaron mal de mi                                           
E--------------0---------------/               E ---------------8------------/                                
B---------6-------------------/                B-------------0--------------/                         
G-----0----------------------/                 G ----------0----------------/
D----------------------------/                  D ---------------------------/
A-8--------------------------/                 A----------------------------/
E-----------------------------/                 E  -8------------------------/
[ch]Dm                                                     LA#[/ch]
Que dijeron que a mi lado                 nunca ibas a ser  feliz                                       
E-----------0----------------/                 E-----------6------------/
B--------6-------------------/                 B--------6---------------/
G-----7----------------------/                 G-----7------------------/
D----------------------------/                  D------------------------/
A-0-------------------------/                  A-------------------------/
E----------------------------/                  E-6-----------------------/
[ch]F[/ch]                                                      [ch]C[/ch]
Cuando llega la mañana                     y te descubro tan mía 
E--------------0---------------/               E ---------------8------------/                                
B---------6-------------------/                B-------------0--------------/                         
G-----0----------------------/                 G ----------0----------------/
D----------------------------/                  D ---------------------------/
A-8--------------------------/                 A----------------------------/
E-----------------------------/                 E  -8------------------------/


[ch]Dm                                                    LA#[/ch]
A dios no tengo mas nada                 que pedir       
E-----------0----------------/                 E-----------6------------/
B--------6-------------------/                 B--------6---------------/
G-----7----------------------/                 G-----7------------------/
D----------------------------/                  D------------------------/
A-0-------------------------/                  A-------------------------/
E----------------------------/                  E-6-----------------------/

[ch]F[/ch]                               [ch]C[/ch]
Te icé dueña los días que me que dan por vivir
[ch]Dm                                 LA#[/ch]                             
Te ice dueña de la sangre que esconde por mi piel
[ch]F[/ch]                            [ch]C[/ch]
Te regale esta vida que esta llena de promesas
[ch]Dm                    LA#[/ch]
Que me izo dios cuando al fin te encontré

E-6/9
B-7/10


Sigue igual con los mismos acordes 
Cristhian Estévez 
08/05/2004
Suggest correction
Give kudos to tab author, rate the tab!
1 2 3 4 5
comments
print report bad tab
guest
You may want to rate the tab now too:
select rating
Wanna post a correction for this tab? Suggest correction