Oops, an error
Loading. Please wait.

7 Years tab

version 4
version 4

Whole song

Interactive

Video

32,086 views 630 this week
1 commentread comment
1 2 3 4 5
x 10
add to favorites
×
Save as Personal and add changes to this tab that will be seen only by you. Learn more ›
×
You can save this tab as Personal to edit and correct it or add notes. All changes will be seen only by you. Learn more »
launch autoscroll
font size
0
reset
how to read this tab
guitar tuner
edit
Autoscroll
slow
fast
+/-
esc
set tempo
stop
Author
7 Years fingerstyle


[Intro] (without harmonics) (repeat 4x)

e|-3-2-0-----------|-----|-3-2-0-----------|-----|
B|-------3-0-3-0-3-|-3-3-|-------3-3-3-0-3-|-3-3-|
G|---------0-------|-0---|---------0-------|-2---|
D|---------2-------|-0---|---------2-------|-0---|
A|---------2-------|-----|---------3-------|-0---|
E|-----------------|-3---|-----------------|-----|

(with harmonics)  (repeat 4x)

e|-3(15)-2(14)-0(12)------------------------------|----------|
B|-------------------3(15)--------3(15)-----3(15)-|----3(15)-|
G|-------------------------4(16)-------4(16)------|-4(16)----|
D|-------------------------2----------------------|-0--------|
A|------------------------------------------------|----------|
E|------------------------------------------------|----------|


[Verse 1]

e|-0---------|-----------|-----------------------------|-0---------|---|-3-2-0------------|-----|-3-2-0---|
B|-0-3-0-3---|-3---0-3---|-1---0-----------------------|-0-3-0-3---|-3-|--------3-0-3-0-3-|-3-3-|-------3-|
G|-0-------2-|-0-0-----2-|-0-0---2-2--2-2--2-2-0-2/4-2-|-0-------2-|-0-|----------0-------|-0---|---------|
D|-----------|-0---------|-2---------------------------|-----------|-0-|----------2-------|-0---|---------|
A|-2---------|-----------|-3---------------------------|-2---------|---|----------2-------|-----|---------|
E|-----------|-3---------|-----------------------------|-----------|-3-|------------------|-3---|---------|

e|---------------|-----------------|---------------------------------|
B|-0-------0-----|-3-------0-3-----|-1-------0-------0-------3-3-----|
G|-0-0-0-2---2-0-|-0-0-0-2-----2-0-|-0-0-0-2---2-0-2---2-0-2-2---2-0-|
D|-2-------------|-0---------------|-2-----------------------0-------|
A|-2-------------|-----------------|-3-----------------------0-------|
E|---------------|-3---------------|---------------------------------|

e|---------------|-----------------|---------------------------------|
B|-0-------0-----|-3-------0-3-----|-1-------0-------0-------3-3-----|
G|-0-0-0-2---2-0-|-0-0-0-2-----2-0-|-0-0-0-2---2-0-2---2-0-2-2---2-0-|
D|-2-------------|-0---------------|-2-----------------------0-------|
A|-2-------------|-----------------|-3-----------------------0-------|
E|---------------|-3---------------|---------------------------------|


[Verse 2]

e|-0---------|-----------|-----------------------------|-0---------|---|-3-2-0------------|-----|-3-2-0---|
B|-0-3-0-3---|-3---0-3---|-1---0-----------------------|-0-3-0-3---|-3-|--------3-0-3-0-3-|-3-3-|-------3-|
G|-0-------2-|-0-0-----2-|-0-0---2-2--2-2--2-2-0-2/4-2-|-0-------2-|-0-|----------0-------|-0---|---------|
D|-----------|-0---------|-2---------------------------|-----------|-0-|----------2-------|-0---|---------|
A|-2---------|-----------|-3---------------------------|-2---------|---|----------2-------|-----|---------|
E|-----------|-3---------|-----------------------------|-----------|-3-|------------------|-3---|---------|

e|---------------|-----------------|---------------------------------|
B|-0-------0-----|-3-------0-3-----|-1-------0-------0-------3-3-----|
G|-0-0-0-2---2-0-|-0-0-0-2-----2-0-|-0-0-0-2---2-0-2---2-0-2-2---2-0-|
D|-2-------------|-0---------------|-2-----------------------0-------|
A|-2-------------|-----------------|-3-----------------------0-------|
E|---------------|-3---------------|---------------------------------|

e|---------------|-----------------|---------------------------------|
B|-0-------0-----|-3-------0-3-----|-1-------0-------0-------3-3-----|
G|-0-0-0-2---2-0-|-0-0-0-2-----2-0-|-0-0-0-2---2-0-2---2-0-2-2---2-0-|
D|-2-------------|-0---------------|-2-----------------------0-------|
A|-2-------------|-----------------|-3-----------------------0-------|
E|---------------|-3---------------|---------------------------------|


[Verse 3]

e|-0---------|-----------|-----------------------------|-0---------|---|-3-2-0------------|-----|-3-2-0---|
B|-0-3-0-3---|-3---0-3---|-1---0-----------------------|-0-3-0-3---|-3-|--------3-0-3-0-3-|-3-3-|-------3-|
G|-0-------2-|-0-0-----2-|-0-0---2-2--2-2--2-2-0-2/4-2-|-0-------2-|-0-|----------0-------|-0---|---------|
D|-----------|-0---------|-2---------------------------|-----------|-0-|----------2-------|-0---|---------|
A|-2---------|-----------|-3---------------------------|-2---------|---|----------2-------|-----|---------|
E|-----------|-3---------|-----------------------------|-----------|-3-|------------------|-3---|---------|

e|---------------|-----------------|---------------------------------|
B|-0-------0-----|-3-------0-3-----|-1-------0-------0-------3-3-----|
G|-0-0-0-2---2-0-|-0-0-0-2-----2-0-|-0-0-0-2---2-0-2---2-0-2-2---2-0-|
D|-2-------------|-0---------------|-2-----------------------0-------|
A|-2-------------|-----------------|-3-----------------------0-------|
E|---------------|-3---------------|---------------------------------|

e|---------------|-----------------|---------------------------------|
B|-0-------0-----|-3-------0-3-----|-1-------0-------0-------3-3-----|
G|-0-0-0-2---2-0-|-0-0-0-2-----2-0-|-0-0-0-2---2-0-2---2-0-2-2---2-0-|
D|-2-------------|-0---------------|-2-----------------------0-------|
A|-2-------------|-----------------|-3-----------------------0-------|
E|---------------|-3---------------|---------------------------------|


[Verse 4]

e|-0---------|-----------|-----------------------------|-0-0-2-3-2-0---|
B|-0-3-0-3---|-3---0-3---|-1---0-----------------------|-0-----------3-|
G|-0-------2-|-0-0-----2-|-0-0---2-2--2-2--2-2-0-2/4-2-|-0-----------0-|
D|-----------|-0---------|-2---------------------------|-------------0-|
A|-2---------|-----------|-3---------------------------|-2-------------|
E|-----------|-3---------|-----------------------------|-------------3-|

e|-3-2-0------------|-----|-3-2-0---|
B|--------3-0-3-0-3-|-3-3-|-------3-|
G|----------0-------|-0---|---------|
D|----------2-------|-0---|---------|
A|----------2-------|-----|---------|
E|------------------|-3---|---------|


[Verse 5]

e|-0---------|-----------|-----------------------------|-0---------|---|-3-2-0------------|-----|-3-2-0---|
B|-0-3-0-3---|-3---0-3---|-1---0-----------------------|-0-3-0-3---|-3-|--------3-0-3-0-3-|-3-3-|-------3-|
G|-0-------2-|-0-0-----2-|-0-0---2-2--2-2--2-2-0-2/4-2-|-0-------2-|-0-|----------0-------|-0---|---------|
D|-----------|-0---------|-2---------------------------|-----------|-0-|----------2-------|-0---|---------|
A|-2---------|-----------|-3---------------------------|-2---------|---|----------2-------|-----|---------|
E|-----------|-3---------|-----------------------------|-----------|-3-|------------------|-3---|---------|

e|---------------|-----------------|---------------------------------|
B|-0-------0-----|-3-------0-3-----|-1-------0-------0-------3-3-----|
G|-0-0-0-2---2-0-|-0-0-0-2-----2-0-|-0-0-0-2---2-0-2---2-0-2-2---2-0-|
D|-2-------------|-0---------------|-2-----------------------0-------|
A|-2-------------|-----------------|-3-----------------------0-------|
E|---------------|-3---------------|---------------------------------|

e|---------------|-----------------|---------------------------------|
B|-0-------0-----|-3-------0-3-----|-1-------0-------0-------3-3-----|
G|-0-0-0-2---2-0-|-0-0-0-2-----2-0-|-0-0-0-2---2-0-2---2-0-2-2---2-0-|
D|-2-------------|-0---------------|-2-----------------------0-------|
A|-2-------------|-----------------|-3-----------------------0-------|
E|---------------|-3---------------|---------------------------------|


[Verse 6]

e|-0---------|-----------|-------------------------------------|
B|-0-3-0-3---|-3---0-3---|-1-----------------------------------|
G|-0-------2-|-0-0-----2-|-0-2-2--2-2--2-2--2-2--2-2-0-2/4-2-0-|
D|-----------|-0---------|-2-----------------------------------|
A|-2---------|-----------|-3-----------------------------------|
E|-----------|-3---------|-------------------------------------|

e|-----------------|---------------|-------------------------------------------|
B|-0-------0-------|-3-------0-----|-3-3-3--3-3--3-3---------------------------|
G|-0-0-0-2---2-0-0-|-0-0-0-2---2-0-|-0---------------2-2--2-2--2-2--0-0--0-0---|
D|-2---------------|-0-------------|-2-----------------------------------------|
A|-2---------------|---------------|-3-----------------------------------------|
E|-----------------|-3-------------|-------------------------------------------|


[Verse 7]

e|-0-0-2-3-2-0-|-----3-2-2--2-2--2-2-0-2-3-|-0-0-2-3-2-0-|---|
B|-0-----------|-3-3-------------------3---|-0-----------|-3-|
G|-0-----------|-0---------------------2---|-0-----------|-0-|
D|-------------|-0-------------------------|-------------|-0-|
A|-2-----------|-----------------------0---|-2-----------|---|
E|-------------|-3-------------------------|-------------|-3-|

e|-3-2-0------------|-----|-3-2-0---|
B|--------3-0-3-0-3-|-3-3-|-------3-|
G|----------0-------|-0---|---------|
D|----------2-------|-0---|---------|
A|----------2-------|-----|---------|
E|------------------|-3---|---------|

e|-0-0-2-3-2-0-|-----3--3-3--3-3--2-2--2-2-3-|
B|-0-----------|-3-3-------------------------|
G|-0-----------|-0---------------------------|
D|-------------|-0---------------------------|
A|-2-----------|-----------------------------|
E|-------------|-3---------------------------|

e|-0-0-2-3-2-0-|---|
B|-0-----------|-3-|
G|-0-----------|-0-|
D|-------------|-0-|
A|-2-----------|---|
E|-------------|-3-|

e|-3-2-0------------|-----|-3-2-0---|
B|--------3-0-3-0-3-|-3-3-|-------3-|
G|----------0-------|-0---|---------|
D|----------2-------|-0---|---------|
A|----------2-------|-----|---------|
E|------------------|-3---|---------|


[Chorus 8]

e|-0---------|-----------|-----------------------------|-0---------|---|-3-2-0------------|-----|-3-2-0---|
B|-0-3-0-3---|-3---0-3---|-1---0-----------------------|-0-3-0-3---|-3-|--------3-0-3-0-3-|-3-3-|-------3-|
G|-0-------2-|-0-0-----2-|-0-0---2-2--2-2--2-2-0-2/4-2-|-0-------2-|-0-|----------0-------|-0---|---------|
D|-----------|-0---------|-2---------------------------|-----------|-0-|----------2-------|-0---|---------|
A|-2---------|-----------|-3---------------------------|-2---------|---|----------2-------|-----|---------|
E|-----------|-3---------|-----------------------------|-----------|-3-|------------------|-3---|---------|

e|-0---------|---|
B|-0-3-0-3---|-3-|
G|-0-------2-|-0-|
D|-----------|-0-|
A|-2---------|---|
E|-----------|-3-|



************************************

| (n)  Ghost note
| /    Slide up

************************************

            
            
Suggest correction
Creating personal tab
Creating personal tab
You can edit any tab online and save it as your Personal.

You can edit, replace or remove any tab part or add personal notes – all changes will be seen only by you.

Personal tabs can be accessed anytime from any device, even offline.
Learn more »
comments
print report bad tab
1 comment total.
+3 reply
hawkinson408 10 Mar 10, 2017 09:30 AM

Might be good to point out... Standard Tuning.. Capo 3rd fret. :-)

guest
You may want to rate the tab now too:
select rating
Wanna post a correction for this tab? Suggest correction