Oops, an error
Loading. Please wait.

7 Years Tab

version 5
version 5

Whole song

  • This is own original version i figured out messing around.
  • This uses chords and tabs at the same time which g... Show more
  • ver 5 new

Interactive

Video

40 views 40 this week
no commentswrite comment
1 2 3 4 5
3 more votes to show rating
add to favorites
launch autoscroll
font size
0
reset
how to read this tab
guitar tuner
Autoscroll
slow
fast
+/-
esc
set tempo
stop
Help us to improve Ultimate-Guitar.com Take our survey!
×
Author
Difficulty
Capo
advanced
3rd fret
Andrew Foy's Arrangement
https://www.youtube.com/watch?v=xaLNrFJYW9w

[Intro]
e|-<15>-<14>-<12>---------------------------------------<15>-<14>-<12>-------|
B|----------------<15>---<12>-<15>-<12>-<15>-<12>-<15>------------------<15>-|
G|---------------------------------------------------------------------------|
D|---------------------------------------------------------------------------|
A|---------------------------------------------------------------------------|
E|------------------------0---------------2---3------------------------------|

e|--------------------------------<15>-<14>-<12>-----------------------------|
B|-<12>-<15>-<12>-<15>-<12>-<15>-----------------<15>--<12>-<15>-<12>-<15>---|
G|---------------------------------0-----------------------------------------|
D|---------------------------------------------------------------------------|
A|--3------------------------------------------------------------------------|
E|------------------------------------------------------0---------------2----|

e|------------<15>-<14>-<12>-------------------------------------------------|
B|-<12>-<15>-----------------<15>--<12>-<15>-<12>-<15>-<12>------------------|
G|---------------------------------------------------------------------------|
D|---------------------------------------------------------------------------|
A|-----------------------------------3---------------------------------------|
E|--3------------------------------------------------------------------------|

[Chorus]
e|-3-2-0---------------------------------------------------------------------|
B|--------3-3/5-3-5-0-0---------------0-3------------0-----------------------|
G|------------------------2-0-------------2-0----------2-2-2-2-2-2-0---2/4---|
D|-------------------------------2p0------------2p0--------------------------|
A|------------------------------------------3----------------3---------3/5---|
E|----------0-------------2-3------------------------------------------------|

e|--------------------------------3-2-0---------------------x----------------|
B|--------3/5-3-5-0-0--------3---3------3-0-3-0-3-0-3---------x--------------|
G|-2p0-----------------2-0------0-------------0-----------------x------------|
D|----------------------------------------------------------------x----------|
A|----------------------------------------3------------(3)----------x--------|
E|--------0------------2-3--------------------------------------------x------|

[Verse]
e|---------------------------------------------------------------------------|
B|-----------------------------0-3-----------------0--------0----------------|
G|---0-0-2-2/4-2-----0---0-0-2-----2-0-------0-0-2---2-0-2----2-0-2--4-------|
D|----------------------------------------(2)--------------------------------|
A|--------------------------------------3-------------------3--------5-------|
E|-0-------------2-----3-----------------------------------------------------|

e|---------------------------------------------------------------------------|
B|---------------------------------------0-3----------------0-------0--------|
G|-<7>----<12>-----0-2-2/4-2-0-2-0-0-0-2-----2-0------0-0-2---2-0-2---2-0-2-4|
D|-----<7>-------0----------------------------------2------------------------|
A|------------------------------------------------3-----------------3-------5|
E|------------0--------------2---3-------------------------------------------|

           [Chorus]
e|---------------------------------------------------------------------------|
B|----------3/5-3-3-5-0-0-----------0----------------------------/8-7-5-7-5--|
G|-7---0------------------2-0----------2-2-2-2-2-2-0--2/4--2p0--------------7|
D|---7-------------------------2p0-------------------------------------------|
A|-------------------------------------------3--------3/5--------------------|
E|----------0-------------2-3------------------------------------0-----------|
 
                                                    >
                                           [Verse]  o               >      >
e|---------------------------------------------------------------------------|
B|---------------7h8-7-------------------------------------------------------|
G|----7-------7--------9-7-----7---7---7---------------0-0-2-2/4-2-------0---|
D|-9-----9-------------------9---9---9---------------------------------------|
A|-9----10--------------------------------x--x--x------------x---------------|
E|---------------------------8------------x--x--x---0--------x------2------3-|

                   o                    o                         >
e|---------------------------------------------------------------------------|
B|--------0-3------------------------------------(0)-------------------------|
G|-0-0-2------2-0-------0-0-2-2/4-2-0-2-4-2-0-2---4---7-----0---------0-2----|
D|--------------------2--------------------------(0)-----7----------0--------|
A|--------x--------3----------x---------0---------5--------------------------|
E|--------x-------------------x-------------------x---------------0----------|

         >  >                   o
e|---------------------------------------------------------------------------|
B|---------------------0-3----------------0-------0----------(0)-------------|
G|-2/4-2--0--2-0-0-0-2-----2-0------0-0-2---2-0-2---2-0-2-----4----7-----0---|
D|--------------------------------2--------------------------(0)------7------|
A|-x-------------------x--------3---------x-------------------5--------------|
E|-x-----2--3----------x------------------x-------------------x--------------|

 [Chorus]
e|---------------------------------------------------------------------------|
B|-3/5-3-3-5-0-0--------------0---3-------------0----------------------------|
G|----------(0)---2--0-------(0)----2-0--------(0)-2-2-2-2-2-2-0--2/4--2p0---|
D|----------(0)---------2p0--(0)----------2p0--(0)---------------------------|
A|-----------x----------------x-------3---------x--------3--------3/5--------|
E|-0---------x----2--3--------x-----------------x----------------------------|

e|-----0-2-2h3-2-0-----3-2-0-------------------------------------------------|
B|-3/5-------------3--(0)----3--0-3-0-3---0------------3/5-3-5-0-0-----------|
G|--------------------(0)----------(0)0-0----------------------------2---0---| 
D|---------------------------------(0)---------------------------------------|
A|---------x-----------x--------3---x-----3---x-x-x-x------------------------|
E|-0-------x-------3---x------------x---------x-x-x-x--0------------2---3----|

e|---------------------------------------------------------------------------|
B|-------0-3-------------0----------------------------3/5-3-5-0-0--------3---|
G|-----------2-0------------2-2-2-2-2-2-0---2/4-2p0-----------------2-0------|
D|--2p0--------------2p0-----------------------------------------------------|
A|--------------------------------3------------------------------------------|
E|----------------------------------------------------0-------------2-3------|

                                       [Verse]
e|----3-2-0------------------------------------------------------------------|
B|----3------3-0h3-p0-h3-p0-h3----------------------------------------0-3----|
G|---0------------------------------------0-0-2-2/4-4-4-2-0---0-0-0-2-----2-0|
D|---------------------------------------------------------------------------|
A|-------------3-------------------------------------------------------------|
E|--------------xx----xx----xx----------0---------------2---3----------------|

e|---------------------------------------------------------------------------|
B|-----------0-------0-----------------------------------------------0-3-----|
G|-----0-0-2---2-0-2---2-0-2---4--7---0--------0-2-2/3\2p0-0-0-0-0-2-----2-0-|
D|---2------------------------------7--------0-------------------------------|
A|-3-----------------3---------5---------------------------------------------|
E|-----------------------------------------0-----------------3---------------|
 
                                       [Bridge]
e|---------------------------------------------------------------------------|
B|-----------0-------0--------0-3------3/5-3-5-0-0-------------0-3-----------|
G|-----0-0-2---2-0-2---2-0-2------2-0--2/4----(0)---2--0------(0)--2-2-2-2-2-|
D|---2----------------------------------------(0)---------2p0-(0)------2-----|
A|-3-----------------3--------2--------2/3-----x---------------x-------------|
E|---------------------------------------------x----2--0-------x-------------|

e|---------------------------------------------------------------------------|
B|---------------------------------------------------------------------------|
G|-2--2--2-2-2-2-2-2-0-2/3-2-0-------0-0-2-2/3-2-0--0-0-0-0-2-2/3-2-0----0---|
D|---(0)-------------------------0--------------------0----------------------|
A|----x--------2-------x-----------3-------x------------------x------------2-|
E|----x----------------x-------------------x------------------x--------------|
     
                                        [Chorus]
e|------------------------------------------0--------------------------------|
B|--3-3-3-3-3-3-3-3-0-0--------------------1---3-3---0--0---------------0--3-|
G|-------(0)------0------2-2--0--0--------0---------(0)-----2--0-------(0)---|
D|-------(0)--------------(0)---(0)------2------------------------2p0--(0)---|
A|--------x-------2--------x-----x------3------------x------------------x----|
E|--------x----------------x-----x-------------------x------2--0--------x----|

e|------------------------------------------0-0--2--3--2--0------3--2--0-----|
B|----------(0)----------------------------1--1--0--0--0--0--3---0--0--0--3--|
G|-2-0------(0)-2-2-2-2-2-2-0-2/4--2------0---0-----0-(0)-0--0---0-(0)-0-----|
D|---0--2p0-(0)-------0-------(0)-(0)----2----------2--------0---------------|
A|-----------x-----------------x---x----3-----------3--------2---X-----------|
E|-----------x-----------------x---x-------------------------3---X-----------|

e|----------------------------------0-0-2--3-3-3--0-0--0--3-3-3--3/5--0--0---|
B|-0-3-0-3-0-3-----3-------3-------1--1-0--0-0-0--0-0--0--0-0-0--3/5--3--3---|
G|-0-0-0-0---------2--(2)--2------0---0----0-0-0--0-0-----0------2----2--2---|
D|-0---0---0---0--(0)-----(0)----2----------------2--------------0-----------|
A|-----X-----------x-------x----3-----------------2-------x------------------|
E|-----X-----------x-------x------------------------------x------------------|

e|-3-3-3-3-2-2-2-0--2-3-------0-0--2--3-2-0----3--2--0-----------------------|
B|-3-3-3-3-3-3------3-3------1--1--0--0-0-0-3--0--0--0--3---0-3-0-3-0-3------|
G|-2-----2-2--------2-2-----0---0-----0-0-0-0--0--0--0------0-0-0-0----------|
D|-0-----0-0--------0-0----2----------------0---------------0---0---0---0----|
A|------------------x-x---3-----------------2--x----------------x------------|
E|------------------x-x---------------------3--x----------------x------------|

e|-3-2-0---------------------------------------------------------------------|
B|-3-----3-3/5-3-5-0-0-----------0-3----------0------------------------------|
G|-2-------------------2--0----------2-0--------2-2-2-2-2-2-0-2/4--2p0-------|
D|-0------------------------2p0-----------2p0--------------------------------|
A|-x-----------------------------------3--------------3-------3/5------------|
E|-x-------------------2--3--------------------------------------------------|

e|------------------------3-2-0----------------------------------------------|
B|-3/5-3-5-0-0--------3--3-------3-0-3-0-3-0-3---3/5-3-5-0-0-----------------|
G|--------------2--0----0--------------0----------------------2--0~----------|
D|---------------------------------------------------------------0~----------|
A|---------------------------------3-----------------------------------------|
E|-0------------2--3------------------------------------------2--3~----------|

 
************************************

| x   Dead note
| (n) Ghost note
| h   Hammer-on
| p   Pull-off
| >   Accented note
| /   Slide up
| \   Slide down

************************************
Suggest correction
Give kudos to tab author, rate the tab!
1 2 3 4 5
comments
print report bad tab
guest
You may want to rate the tab now too:
select rating
Wanna post a correction for this tab? Suggest correction