Oops, an error
Loading. Please wait.

7 Years Tab

version 5
version 5

Whole song

Interactive

Video

1,396 views 15 this week
1 commentread comment
1 2 3 4 5
x 3
add to favorites
launch autoscroll
font size
0
reset
how to read this tab
guitar tuner
×
Best way to learn
"7 Years"
Autoscroll
slow
fast
+/-
esc
set tempo
stop
Author
Difficulty
Capo
  follow
intermediate
3rd fret
About this tab version
This uses chords and tabs at the same time which gives the song a bit more layering. Was this info helpful? Yes No
[Intro]

e|----3--2--0---------------------------------------------------------------------|
B|-------------3------------------------------------------------------------------|
G|--------------------------------------------------------------------------------|
D|--------------------------------------------------------------------------------|
A|--------------------------------------------------------------------------------|
E|--------------------------------------------------------------------------------|

E, G, C, D chords x2
Then do an E chord and keep doing one strum on it's own then another strum
with your 4th finger on 3rd fret of the b string but still have the e chord on.   x2

Next do A G chord but instead of having your finger on the e string put it above on the b
 string on and off. x2

e|----3--2--0---------------------------------------------------------------------|
B|-------------3------------------------------------------------------------------|
G|--------------------------------------------------------------------------------|
D|--------------------------------------------------------------------------------|
A|--------------------------------------------------------------------------------|
E|--------------------------------------------------------------------------------|
then do A C chord without your first finger on and play on and off like the E chord. x3


[Verse]

strum an E chord
e|-------------------------------------------------------------------------------|
B|-0-3---------------------------------------------------------------------------|
G|-------2-----------------------------------------------------------------------|
D|-------------------------------------------------------------------------------|
A|-------------------------------------------------------------------------------|
E|-------------------------------------------------------------------------------|

strum a G chord
e|-------------------------------------------------------------------------------|
B|-----0-3-----------------------------------------------------------------------|
G|----------2--------------------------------------------------------------------|
D|-0-----------------------------------------------------------------------------|
A|-------------------------------------------------------------------------------|
E|-------------------------------------------------------------------------------|

strum a c chord
e|------------------------------------------------------------------------------|
B|------------------------------------------------------------------------------|
G|------------------------------------------------------------------------------|
D|-2----------------------------------------------------------------------------|
A|------------------------------------------------------------------------------|
E|------------------------------------------------------------------------------|

e|------------------------------------------------------|
B|-0----------------------------------------------------|
G|----2-2--0-0---2---0--2--4---2---0--------------0--2--|
D|--------------------------------------------0---------|
A|------------------------------------------------------|
E|----------------------------------------0-------------|


[Chords]

E, G, C, D
Suggest correction
Give kudos to tab author, rate the tab!
1 2 3 4 5
comments
print report bad tab
1 comment total.
0 reply
jamo84 705 Nov 04, 2016 08:37 AM

It's E-Minor (Em)!

guest
You may want to rate the tab now too:
select rating
Wanna post a correction for this tab? Suggest correction