Oops, an error
Loading. Please wait.

Estoy A Tus Pies Chords

20 views 3 this week
no commentswrite comment
1 2 3 4 5
3 more votes to show rating
add to favorites
launch autoscroll
font size
0
reset
transpose
0
reset
display chords
guitar tuner
×
Best way to learn
"Estoy A Tus Pies"
Autoscroll
slow
fast
+/-
esc
set tempo
stop
HOLA PUES ESTA ROLA PARA QUE DE UN ASPECTO MEJOR TOQUEN
 C TAN EN LAS CUERDAS DE ARRIBA COMO EN LAS DE ABAJO
 A FINAL DE CUENTAS SE OYE BIEN.

                   INTRO:   F,C,A#,C
    F      C       A#       C
e---1------8--------1--------3-------------------------e
b---1------8--------3--------5-------------------------B
G---2------9--------3--------5-------------------------G
D---3------10-------3--------5-------------------------D
A---3------10-------1--------3-------------------------A
E---1------8--------1--------3-------------------------E

(esto lo hacen al inicio de cada acorde)
       F          C        A#         C
e------------------------------------------------------e
b------------------------------------------------------B
G------2----------0---------0----------2---------------G
D----3----------2---------5----------3-----------------D
A--3----------3---------3----------3-------------------A
E------------------------------------------------------E

                F
Hay cosas que pasan
                C
Que empujan y jalan
            A#
Hasta que matan
            C
Hasta que matan
           F
Siendo sincero,
            C
No soy perfecto
        A#            C
Solo honesto, solo honesto.
        F               C
Que no vez? Estoy a tus pies
      A#               C
Perdóname, estoy a tus pies
        F               C
Que no vez? Estoy a tus pies
       A#               C
Perdóname, estoy a tus pies

                 F
Hay gente que cambia,
            C
Vida que queda,
             A#
Hay gente que ama
                C
mi corazon tiembla.
        F               C
Que no vez? Estoy a tus pies
       A#               C
Perdóname, estoy a tus pies
        F                C
Que no vez? Estoy a tus pies
       A#               C
Perdóname, estoy a tus pies

que no........
            F                  C
pasan las horas la noches tan frias
       A#         C
solo quiero regresar
        F               C
dia con dia se me va la vida
      A#          C
solo quiero regresar.

        F               C
Que no vez? Estoy a tus pies
       A#               C
Perdóname, estoy a tus pies
        F                C
Que no vez? Estoy a tus pies
       A#               C
Perdóname, estoy a tus pies.


PUES ESPERO LES ALLA GUSTADO ME PARECE QUE LOS ACORDES
SON LOS CORRECTOS ALGUN ERROR HAGANMELO SABER NO?
SALE PUES SALUDOS BYE.
icarus_decays@
Suggest correction
Give kudos to tab author, rate the tab!
1 2 3 4 5
comments
print report bad tab
guest
You may want to rate the tab now too:
select rating
Wanna post a correction for this tab? Suggest correction