Oops, an error
Loading. Please wait.

No Te Merezco Tab

36 views 1 this week
no commentswrite comment
1 2 3 4 5
3 more votes to show rating
add to favorites
launch autoscroll
font size
0
reset
how to read this tab
guitar tuner
×
Best way to learn
"No Te Merezco"
Autoscroll
slow
fast
+/-
esc
set tempo
stop
afinacion: estandard: e b g d A E


Esta es mi version, se la dedico a mi sobrina Dania,


intro:

   se repite esta sección (2x)
||--------------------------------|e/mi
||--------------------------------|b/si
||o------------------------------o|g/sol
||o---7-----5-----4-----4h5h4-4--o|d/re
||--5---5-5---5-5---5-5------5-5--|A/La
||--------------------------------|E/Mi

                                                 G1
|------------------------------------------------3--|e/mi
|-----------------------------------------------(3)-|b/si
|----------------------------------------2--0--0-0--|g/sol
|--4--4---5--5-5h4--4--2---2--4--4-4h2--0--0--0--0--|d/re
|-2--2--2--2-------2-0---0---0--0----------------2--|A/La
|--------------------------------------3--3--3---3--|E/Mi


(En casi todas las estrofas se toca palm muted)
D9             A
No puedo dormir
            G
Tampoco sentir lo
            A/D9
Lo que debo


D9             A
No quiero fingir
            G
Lo que es vivir, no

Yo no quiero


CORO:
(Aqui se toca el acorde abierto)
Bm              A             G
Con todo lo que he dicho y hecho

No te merezco
              Bm
No te merezco


Bm              A             G
Con todo lo que ha pasado ya

No te merezco
                     A/D9
No te merezco


D9              A
Me quedo aquí
            G
O voy por ahí, no
            A
Se que hacer
D9              A
Con todo lo que vi
            G
Y lo que perdí, tu
            A
Eres todo


CORO


D9
Dime que sentir

Como debo vivir
Bm         A                   G
Y no te diré que me tengo que ir


D9
Dime que hacer

Vida con placer
Bm       A               G
Y prometo no dejarte caer


CORO


Final:

|-----------------------| e / mi
|-----------------------| b / si
|-2--0------------------| g / sol
|-4--4--4h5h4h5h4h5h4---| d / re
|-5--5--5---------------| A / La
|-----------------------| E / Mi


Acordes utilizados:

    D9   A    G1   G    Bm   G1(otra forma)
e|--x----5----3----3----x----3-----------------|
B|--x----5----3----3----x----0-----------------|
G|--7----6----0----4----7----0-----------------|
D|--7----7----0----5----9----0-----------------|
A|--5----7----2----5----9----2-----------------|
E|-------5----3----3----7----3-----------------|


Sigue practicando BodoKa, animo¡
Suggest correction
Give kudos to tab author, rate the tab!
1 2 3 4 5
comments
print report bad tab
guest
You may want to rate the tab now too:
select rating
Wanna post a correction for this tab? Suggest correction