Oops, an error
Loading. Please wait.

Country Man Chords

version 2
version 2

Whole song

7,885 views 12 this week
1 commentread comment
1 2 3 4 5
x 8
add to favorites
launch autoscroll
font size
0
reset
transpose
0
reset
display chords
guitar tuner
Autoscroll
slow
fast
+/-
esc
set tempo
stop
Help us to improve Ultimate-Guitar.com Take our survey!
×
Author
Difficulty
novice
Intro:
e|--------------------------------------------------------------|
B|--------------------------------------------------------------|
G|-0---------2-2-4-0-------0------------------------------------|
D|---2---0-2---------2-0-2---2---0-2----------------------------|
A|-----2-----------------------2-----1/2-2-1/2-2-1/2-2-0--------|
E|--------------------------------------------------------3--0--|

e|-----------------------------------------------|
B|-----------------------------------------------|
G|-0---------2-2-4-0-------0---------------------|
D|---2---0-2---------2-0-2---2---0-2-------------|
A|-----2-----------------------2-----1/2-0-------|
E|------------------------------------------3--0-|

         E     A         E
YOU NEED HANDS ROUGH NOT SOFT
   E                		   B
TO COME AND WARM YOU UP UP IN THAT COLD HAYLOFT
       E               	  	    A          E
LET ME HOLD YOU LITTLE DARLIN IN MY BIG STRONG ARMS 
      E               		 B           E
CAN'T GET THESE KINDA MUSCLES ANYWHERE BUT A FARM

(CHORUS)
E          A         E
HEY I AM A COUNTRY MAN
  E          		B          
A CITY BOY CAN'T DO THE THINGS I CAN
      E         	        A           E
I CAN GROW MY OWN GROCERIES AND SALT-CURE A HAM
E              B       E
HEY BABY I'M A COUNTRY MAN


Repeat intro

           E	     A		E
I'VE GOT A JEEP WITH CAMOFLAUGE SEATS
     E			            B
THAT WAY NOBODY SEES US PARKED BACK UP IN THESE TREES
	   E                 	    A      E
YOU LITTLE IPOD IS LOADED DOWN WITH HOOBASTANK
	   E			       B	   E
DON'T BE A TAPE PLAYER HATER GIRL WERE GROOVIN' TO HANK

(CHORUS)
E	   A	  E
HEY I'M A COUNTRY MAN
  E			B
A CITY BOY CAN'T DO THE THINGS I CAN
      E			       A            E
I CAN HOTWIRE YOUR TRACTOR AND PLOW UP YOUR LAND
E              B	E
HEY BABY I'M A COUNTRY MAN

(BRIDGE)
      	     A
YOU LIKE THE IVY LEAGUE, HUMVEE TENNIS SWEATER TYPE
    B
BUT GIRL I'M HERE TO TELL YOU DON'T BELIEVE THE HYPE

E	  A	  E
HEY I'M A COUNTRY MAN
      E			              B
I CAN WRESTLE HOGS AND GATORS WITH MY TWO BARE HANDS
	 E			   A	  E
GIRL YOU BETTER MOVE QUICK, I'M IN HIGH DEMAND
E              B	   E
HEY BABY I'M A COUNTRY MAN


E          A       E
HEY! I'M A COUNTRY MAN
E                     B
HUNTIN' ME A GOOD OLE' COUNTRY GIRLFRIEND
    E                                A         F#
WHY DON'T YOU COME AND JOIN ME IN MY NEW DEER STAND
E              B       E
HEY BABY I'M A COUNTRY MAN
E              B Bb  A   E
HEY BABY I'M A COUNTRY MAN

e|--------------------------------------------------------------|
B|--------------------------------------------------------------|
G|-0---------2-2-4-0-------0------------------------------------|
D|---2---0-2---------2-0-2---2---0-2----------------------------|
A|-----2-----------------------2-----1/2-2-1/2-2-1/2-2-0--------|
E|--------------------------------------------------------3--0--|

e|-----------------------------------------------------------------------|
B|-----------------------------------------------------------------------|
G|-0---------2-2-4-0-------0-------------------2-2-0-2-0--2-2-2-4-0------|
D|---2---0-2---------2-0-2---2---0-2--------------------------------2-0-2|
A|-----2-----------------------2-----1/2-0-------------------------------|
E|------------------------------------------3----------------------------|
Suggest correction
comments
print report bad tab
1 comment total.
0 reply
dmayle42489 10 Oct 15, 2015 08:15 PM

the intro is incorrect it should be instead of

G 1 NOT 0
D 2 2
A 2 2
E

guest
You may want to rate the tab now too:
select rating
Wanna post a correction for this tab? Suggest correction