Oops, an error
Loading. Please wait.

Country Man Tab

version 2
version 2

Whole song

274 views 1 this week
no commentswrite comment
1 2 3 4 5
please rate
add to favorites
launch autoscroll
font size
0
reset
how to read this tab
guitar tuner
Autoscroll
slow
fast
+/-
esc
set tempo
stop
Help us to improve Ultimate-Guitar.com Take our survey!
×
Author
Difficulty
Tuning
Capo
intermediate
D A D G B E
2nd fret
Capo 2nd Fret
Drop D tuning

E|------------------------------------------------------|
B|------------------------------------------------------|
G|-----------------0--0--2------------------------------|
D|--3--0--------0-----------3--0-----0------------------|
A|--------0--3--------------------3---------------------|
E|------------------------------------------------------|


E|------------------------------------------------------|
B|------------------------------------------------------|
G|-----------------1-2--2--1-2--2--1-2--2---------------|
D|--3--0--------0--1/2--2--1/2--2--1/2--2--2------------|
A|--------0--3-----------------------------0------------|
E|--------------------------------------------3--2--0---|

E|-----------------3--3---------------------------------|
B|-----------------0--0---------------------------------|
G|-----------------0--0--2------------------------------|
D|--3--0--------0--0--0-----3--0-----0------------------|
A|--------0--3-----5--5-----------3---------------------|
E|-----------------5--5---------------------------------|


E|------------------------------------------------------|
B|------------------------------------------------------|
G|-----------------2------------------------------------|
D|--3--0--------0--2------------------------------------|
A|--------0--3-----0------------------------------------|
E|--------------------3--2--0---------------------------|

VERSE 1

         D      G         D
You need hands, rough not soft

   D                               A
To come and warm you up up in that cold hayloft

       D                            G          D
Let me hold you little darlin in my big strong arms

     D                          A           D
Cant get these kinda muscles anywhere but a farm


CHORUS

D         G       D
Hey, Im a country man

  D                    A
A city boy cant do the things I can

      D                      G           D
I can grow my own groceries, salt-cure a ham

D               A       D
Hey, baby, Im a country man.



VERSE 2

        D          G          D
I got a jeep, with camouflage seats

     D                         A
That way nobody sees up parked way up in these trees

            D                      G    D
Your little IPods loaded down with Hoobastank

          D                            A         D
Dont be a tape player hater, girl were cruising to Hank


CHORUS 2

D         G       D
Hey, Im a country man

  D                    A
A city boy cant do the things I can

      D                        G            D
I can hotwire your tractor and plow up your land

D               A       D
Hey, baby, Im a country man.


BRIDGE

             G
You like the Ivy League, Humvee, tennis sweater type

      A
But girl Im to tell ya, dont believe the hype


CHORUS

D         G        D
Hey, Im a country man

      D                               A
I can wrestle hogs and gators with my two bare hands

      D                            G    D
Girl, you better move quick, Im in high demand

D               A       D
Hey, baby, Im a country man.

D          G        D
HEY!! Im a country man

D                            A
Huntin me a good ole country girlfriend

    D                               G        E7
Why dont you come and join me in my new deer stand?

D               A       D
Hey, baby, Im a country man

D               A       D
Hey, baby, Im a country man.
Suggest correction
Give kudos to tab author, rate the tab!
1 2 3 4 5
comments
print report bad tab
guest
You may want to rate the tab now too:
select rating
Please do not post tabs as comments. Select "correction" instead!