Oops, an error
Loading. Please wait.

Games tab

926 views 6 this week
no commentswrite comment
1 2 3 4 5
3 more votes to show rating
add to favorites
×
Save as Personal and add changes to this tab that will be seen only by you. Learn more ›
×
You can save this tab as Personal to edit and correct it or add notes. All changes will be seen only by you. Learn more »
launch autoscroll
font size
0
reset
how to read this tab
guitar tuner
edit
Autoscroll
slow
fast
+/-
esc
set tempo
stop
Author
Difficulty
-------------------------------------------------------------------------------
     Games - Luke Bryan
-------------------------------------------------------------------------------
Tabbed by:Nathan Cline
E-mail: nbcline81.tabs@gmail.com

Key of G#m

** This is just how I play it, it's a mix of the rhythm and lead parts that
can be played and enjoyed on an acoustic or an electric guitar. I did include 
leads and rhythm for the break and the bridge though. Enjoy!

Tuning:EADGBe

Intro


e|-----------------------------2----------------------------------------------|
B|---------7---------7--------------------------------------------------------|
G|-------4-------4----------------3-3-3-4-3-----------------------------------|
D|-----6-----4-6---6---------4--------------6-4----(x2)-----------------------|
A|---6-------------------1-4--------------------------------------------------|
E|-4-------------------2------------------------------------------------------|

Verse 1

e|-----------------------------2-------------------------00000000-2222-2------|
B|---------7---------7-----------------------------------00000000-2222-2------|
G|-------4-------4----------------3-3-3-4-3--------------11111111-2222-2------|
D|-----6-----4-6---6---------4--------------6-4----(x3)--22222222-4444-4------|
A|---6-------------------1-4-----------------------------22222222-4444-4------|
E|-4-------------------2---------------------------------00000000-2222-2------|

Chorus 1

e|------------------4-4-0-0-2-2-2----4-4-0-0-2222-2---------------------------|
B|------------------4-4-0-0-2-2-2----4-4-0-0-2222-2---------------------------|
G|-------44---------4-4-1-1-3-3-3----4-4-1-1-2222-2---------------------------|
D|-66-22-44-44-(x2)-6-6-2-2-4-4-4----6-6-2-2-4444-4---------------------------|
A|-66-22-22-44------6-6-2-2-4-4-4----6-6-2-2-4444-4---------------------------|
E|-44-00----22------4-4-0-0-2-2-2-0--4-4-0-0-2222-2---------------------------|

Break (last notes are part of verse 2)

e|-----------------------------2----------------------------------------------|
B|---------7---------7--------------------------------------------------------|
G|-------4-------4----------------3-3-3-4-3-----------------------------------|
D|-----6-----4-6---6---------4--------------6-4-------------------------------|
A|---6-------------------1-4--------------------------------------------------|
E|-4-------------------2------------------------------------------------------|

Verse 2

e|-----------------------------2----------------------------------------------|
B|---------7---------7--------------------------------------------------------|
G|-------4-------4----------------3-3-3-4-3-----------------------------------|
D|-----6-----4-6---6---------4--------------6-4-------------------------------|
A|---6-------------------1-4--------------------------------------------------|
E|-4-------------------2------------------------------------------------------|

e|-----------------------------2----------------------------------------------|
B|---------7---------7--------------------------------------------------------|
G|-------4-------4----------------3-3-3-4-3-6~--------------------------------|
D|-----6-----4-6---6---------4------------------------------------------------|
A|---6-------------------1-4--------------------------------------------------|
E|-4-------------------2------------------------------------------------------|

e|-----------------------------2-------------------------00000000-2222-2------|
B|---------7---------7-----------------------------------00000000-2222-2------|
G|-------4-------4----------------3-3-3-4-3--------------11111111-2222-2------|
D|-----6-----4-6---6---------4--------------6-4----------22222222-4444-4------|
A|---6-------------------1-4-----------------------------22222222-4444-4------|
E|-4-------------------2---------------------------------00000000-2222-2------|

Chorus 2

e|------------------4-4-0-0-2-2-2----4-4-0-0-2222-2222------------------------|
B|------------------4-4-0-0-2-2-2----4-4-0-0-2222-2222------------------------|
G|-------44---------4-4-1-1-3-3-3----4-4-1-1-2222-2222------------------------|
D|-66-22-44-44-(x2)-6-6-2-2-4-4-4----6-6-2-2-4444-4444------------------------|
A|-66-22-22-44------6-6-2-2-4-4-4----6-6-2-2-4444-4444------------------------|
E|-44-00----22------4-4-0-0-2-2-2-0--4-4-0-0-2222-2222------------------------|

Solo (Rhythm)

e|----------------------------------------------------------------------------|
B|----------------------------------------------------------------------------|
G|----------------------------------------------------------------------------|
D|-6-6-6-6---------------2-2-2-2---4-4-4-4--4---------------------------------|
A|-6-6-6-6---------------2-2-2-2---4-4-4-4--4---------------------------------|
E|-4-4-4-4---------------0-0-0-0---2-2-2-2--2---------------------------------|

Solo (Lead)

e|----------------------------------------------------------------------------|
B|------19-19------19-19---19~~~~---------------------------------------------|
G|-18b20------18b20------18b20pb20-18br20-16----------------------------------|
D|-------------------------------------------18-16----------------------------|
A|-------------------------------------------------18-16----------------------|
E|----------------------------------------------------------------------------|

Bridge (Rhythm)

e|----------------------------------------------------------------------------|
B|----------------------------------------------------------------------------|
G|----------------------------------------------------------------------------|
D|-2-2-2-2-2-2-2-2-4-4-4-4-4-4-4-4-2-2-2-2-2-2-2-2-44444444-4-----------------|
A|-2-2-2-2-2-2-2-2-4-4-4-4-4-4-4-4-2-2-2-2-2-2-2-2-44444444-4-----------------|
E|-0-0-0-0-0-0-0-0-2-2-2-2-2-2-2-2-0-0-0-0-0-0-0-0-22222222-2-----------------|

Bridge (Lead)

e|----44444444444444-4-66666666666666---7777777777777777-99999999-9-----------|
B|----------------------------------------------------------------------------|
G|----------------------------------------------------------------------------|
D|----------------------------------------------------------------------------|
A|----------------------------------------------------------------------------|
E|----------------------------------------------------------------------------|

Chorus 3

e|------------------4-4-0-0-2-2-2----4-4-0-0-2222-2222------------------------|
B|------------------4-4-0-0-2-2-2----4-4-0-0-2222-2222------------------------|
G|-------44---------4-4-1-1-3-3-3----4-4-1-1-2222-2222------------------------|
D|-66-22-44-44-(x2)-6-6-2-2-4-4-4----6-6-2-2-4444-4444------------------------|
A|-66-22-22-44------6-6-2-2-4-4-4----6-6-2-2-4444-4444------------------------|
E|-44-00----22------4-4-0-0-2-2-2-0--4-4-0-0-2222-2222------------------------|

************************************

| /   slide up
| \   slide down
| h   hammer-on
| p   pull-off
| ~   vibrato
| +   harmonic
| x   Mute note
| b   Bend
| pb  Pre-bend
| br  Bend release
| pbr Pre-bend release
| brb Bend release bend

************************************

Break (Rhythm)

e|----------------------------------------------------------------------------|
B|----------------------------------------------------------------------------|
G|----------------------------------------------------------------------------|
D|----------------------------------------------------------------------------|
A|----------------------------------------------------------------------------|
E|----------------------------------------------------------------------------|

You know the one where you call
But you act like you never called me
When you see me at a bar
But you act like you never saw me
When you're dancing with him, and you're looking at me
Or I'm holding her, and I'm hoping you see
Or the one where you don't kiss me
Then you tell me that you miss me

All of these games, we play
I can't even keep 'em all straight
Do we mean what we say
We got lines crossed all over the place, yeah
I can't tell if I'm winning or losing
Somebody tell me what are we doing
Nobody ever comes out on top
Tell me are we ever gonna stop
Playing these games

The one where you act all surprised
Like you didn't know I'd be at the party
The way you make sure it gets back to me
That you got with somebody
The way you wake up, say it was just a mistake
But you always leave something over at my place
So I gotta bring it back
Now baby why you gotta be like that

All of these games, we play
I can't even keep 'em all straight
Do we mean what we say
We got lines crossed all over the place, yeah
I can't tell if I'm winning or losing
Somebody tell me what are we doing
Nobody ever comes out on top
Tell me are we ever gonna stop
Playing these games

This break-up, make-up,hot and cold thing got me dizzy
You don't want me til I got somebody with me
It's gonna kill me
Baby tell me, 
What am I supposed to do with you 

And all of these games, we play
I can't even keep 'em all straight
Do we mean what we say
We got lines crossed all over the place, yeah
I can't tell if I'm winning or losing
Somebody tell me what are we doing
Nobody ever comes out on top
Tell me are we ever gonna stop
Playing these games
All of these games

            
            
Suggest correction
Creating personal tab
Creating personal tab
You can edit any tab online and save it as your Personal.

You can edit, replace or remove any tab part or add personal notes – all changes will be seen only by you.

Personal tabs can be accessed anytime from any device, even offline.
Learn more »
Give kudos to tab author, rate the tab!
1 2 3 4 5
comments
print report bad tab
guest
You may want to rate the tab now too:
select rating
Wanna post a correction for this tab? Suggest correction