Oops, an error
Loading. Please wait.

Huntin Fishin And Lovin Every Day tab

3,592 views 27 this week
1 commentread comment
1 2 3 4 5
x 5
add to favorites
×
Save as Personal and add changes to this tab that will be seen only by you. Learn more ›
×
You can save this tab as Personal to edit and correct it or add notes. All changes will be seen only by you. Learn more »
launch autoscroll
font size
0
reset
how to read this tab
guitar tuner
edit
Autoscroll
slow
fast
+/-
esc
set tempo
stop
Author
HUNTIN', FISHIN' AND LOVIN' EVERY DAY
LUKE BRYAN
KILL THE LIGHTS(2015)
TABBED BY : ZACK OUELLETTE

[Intro 1]

ELECTRIC GUITAR (NO CAPO, STANDARD TUNING)

e|-3-------------------------------------------------------------------------|
B|-3h5-3------------3-3\1----1---1-1-----------------------------------------|
G|-------2h4----2/4---4\2----0-2-0-0-----------------------------------------|
D|---------------------------------0-2-0-2----2br3-0-------------------------|
A|---------------------------------------------------------------------------|
E|---------------------------------------------------------------------------|

e|---------------------------------------------------------------------------|
B|-----3----1----1--0----------3------3--------------------------------------|
G|-2h4------2----0--0--------0---0--5---5------------------------------------|
D|---------------0--2----3h5-------------------------------------------------|
A|---------------------------------------------------------------------------|
E|---------------------------------------------------------------------------|

ACOUSTIC WALK DOWN (CAPO 5 , DROP D TUNING)

e|------------------------2--|
B|------------------------3--|
G|-------------0-----0----2--|
D|-----------0-----0---------|
A|---------3-----2-----------|
E|---------------------3-----|


[Verse 1]

e|---------------------------------------------------------------------------|
B|---------------------------------------------------------------------------|
G|-12----10---------12----12----10----------12-------------------------------|
D|-12----10---10----12----12----10----10----12-------------------------------|
A|-10----8----10----10----10----8-----10----10-------------------------------|
E|------------8-----------------------8--------------------------------------|


[Chorus]

e|-----3----------3----------3----------3------------------------------------|
B|-------0------1---1------1---1----------0----------------------------------|
G|---------------------------------------------------------------------------|
D|-3\5--------3----------2----------3\5--------------------------------------|
A|---------------------------------------------------------------------------|
E|---------------------------------------------------------------------------|

e|-----3----------3----------3----------3------------------------------------|
B|-------0------1---1------1---1----------0----------------------------------|
G|---------------------------------------------------------------------------|
D|-3\5--------3----------2----------3\5--------------------------------------|
A|---------------------------------------------------------------------------|
E|---------------------------------------------------------------------------|


[Instrumental]

e|---------------------------------------------------------------------------|
B|---------------------------------------------------------------------------|
G|---------------------------------------------------------------------------|
D|--5-5--5-5--5-5-5-3-5------------------------------------------------------|
A|------------------3-5------------------------------------------------------|
E|------------------1-3------------------------------------------------------|


[Verse 2]

e|---------------------------------------------------------------------------|
B|---------------------------------------------------------------------------|
G|------------5-----------------------5--------------------------------------|
D|--5----3----5----5--------5----3----5----5---------------------------------|
A|--5----3----3----5--------5----3----3----5---------------------------------|
E|--3----1---------3--------3----1---------3---------------------------------|


[Solo]

e|--------------------------15-----------------------------------------------|
B|----------------------------15---------------------------------------------|
G|-------12----14b16--14b16-----16r14-12----14b16r-14br16-12----14b16 12-----|
D|-12h14----12---------------------------14------------------14--------------|
A|---------------------------------------------------------------------------|
E|---------------------------------------------------------------------------|

e|-------15----------------15------------------------------------------------|
B|-15b17----17r15-12--------15-----------------------------------------------|
G|-------------------14b16---16r12-------------------------------------------|
D|----------------------------------14-12------------------------------------|
A|----------------------------------------14\12--10--------------------------|
E|---------------------------------------------------------------------------|


[Chorus]

e|-----3----------3----------3----------3------------------------------------|
B|-------0------1---1------1---1----------0----------------------------------|
G|---------------------------------------------------------------------------|
D|-3\5--------3----------2----------3\5--------------------------------------|
A|---------------------------------------------------------------------------|
E|---------------------------------------------------------------------------|

e|-----3----------3----------3----------3------------------------------------|
B|-------0------1---1------1---1----------0----------------------------------|
G|---------------------------------------------------------------------------|
D|-3\5--------3----------2----------3\5--------------------------------------|
A|---------------------------------------------------------------------------|
E|---------------------------------------------------------------------------|
[REPEAT CHORUS TILL END]


CHORD PROGRESSION THROUGHOUT THE ENTIRE SONG : 

LEAD (ELECTRIC, NO CAPO, STANDARD TUNING) : G F C G
ACOUSTIC (RHYTHM, CAPO 5, DROP D TUNING)  : D C G/B C


************************************

| h   Hammer-on
| r   Release
| b   Bend
| br  Bend release
| /   Slide up
| \   Slide down
|     

************************************

            
            
Suggest correction
Creating personal tab
Creating personal tab
You can edit any tab online and save it as your Personal.

You can edit, replace or remove any tab part or add personal notes – all changes will be seen only by you.

Personal tabs can be accessed anytime from any device, even offline.
Learn more »
comments
print report bad tab
1 comment total.
0 reply
Guitarlover827 10 Sep 05, 2017 04:30 PM

Great! I love the intro

guest
You may want to rate the tab now too:
select rating
Wanna post a correction for this tab? Suggest correction