Oops, an error
Loading. Please wait.

Kick The Dust Up tab

version 1
version 1

Whole song

Interactive

Video

4,048 views 18 this week
2 commentsread comments
1 2 3 4 5
x 6
add to favorites
×
Save as Personal and add changes to this tab that will be seen only by you. Learn more ›
×
You can save this tab as Personal to edit and correct it or add notes. All changes will be seen only by you. Learn more »
launch autoscroll
font size
0
reset
how to read this tab
guitar tuner
edit
Autoscroll
slow
fast
+/-
esc
set tempo
stop
Author
Difficulty
Artist : Luke Bryan
Song : Kick The Dust Up
Tabbed by : Nate Cline
email : nbcline81.tabs@gmail.com
Tuning Standard

Key : G#minor


Verse/Intro Riff

Guitar 1 (Banjo)
e|-----------------------7-|-------------------------|
B|----9--7---------7--9----|-----9--7---------7--9---|
G|---------8-6--8----------|----------8-6--8---------|
D|-6-----------------------|--6----------------------|
A|-------------------------|-------------------------|
E|-------------------------|-------------------------|

Guitar 2 (Electric Guitar)
e|-------------------------|-------------------------|
B|-------------------------|-------------------------|
G|-----------------------4-|-------------------------|
D|----6--4---------4--6----|-----6--4---------4--6---|
A|---------6-4--6----------|----------6-4--6---------|
E|-4-----------------------|--4----------------------|

[Intro]
G#m


[Verse]
G#m                              
All week long it’s a farming town they're making that money grow
G#m                                 
Tractors, plows with flashing lights backing up a two lane road
G#m                      
They take one last lap around,
G#m                    
That sun up high goes down
              G#m
And then it's on, girl, kick it on back
Z71 like a Cadillac


[Chorus]
G#m                                  E F#
  We go way out where there ain’t nobody,
G#m                              E  F#
  We turn this cornfield into a party
E
Pedal to the floorboard
B
End up in a four door
F#                     G#m
Burning up a backroad song.
E
Park it and we pile out, baby, watch your step now, 
F#
Better have your boots on.


[Break]
Guitar 1
e|-------------------------|-------------------------|
B|-9-9---------------------|-9-9---------------------|
G|-----8-8---6-8/9\8/9\8---|-----8-8---6h8/9\8-------|
D|---------6---------------|---------6----------(x2)-|
A|-------------------------|-------------------------|
E|-------------------------|-------------------------|

Guitar 2

e|-------------------------|-------------------------|
B|-------------------------|-------------------------|
G|-------------------------|-------------------------|
D|-6-6---------------------|-6-6----------------(x2)-|
A|-----6-6---4h6/7\6/7\6---|-----6-6---4h6/7\6-------|
E|---------4---------------|---------4---------------|

G#m
Kick the dust up,
Back it on up,
Fill your cup up,
Let’s tear it up up
And kick the dust up.


[Verse]
G#m                            
Bar downtown they got a line of people waiting out the door.
G#m                                    
10 dollar drinks, it’s packed inside, I don’t know what they're waiting for.
G#m                     
Got me a jar full of ‘Clear
G#m                             
And I got that music for your ear
              G#m
And it’s like knock knock knock goes the diesel,
If you really wanna see the beautiful people


[Chorus]
G#m                                  E F#
  We go way out where there ain’t nobody,
G#m                              E  F#
  We turn this cornfield into a party
E
Pedal to the floorboard
B
End up in a four door
F#                     G#m
Burning up a backroad song.
E
Park it and we pile out, baby, watch your step now, 
F#
Better have your boots on.

[Break]
Guitar 1
e|-------------------------|-------------------------|
B|-9-9---------------------|-9-9---------------------|
G|-----8-8---6h8/9\8/9\8---|-----8-8---6h8/9\8-------|
D|---------6---------------|---------6----------(x2)-|
A|-------------------------|-------------------------|
E|-------------------------|-------------------------|

Guitar 2

e|-------------------------|-------------------------|
B|-------------------------|-------------------------|
G|-------------------------|-------------------------|
D|-6-6---------------------|-6-6----------------(x2)-|
A|-----6-6---4h6/7\6/7\6---|-----6-6---4h6/7\6-------|
E|---------4---------------|---------4---------------|

G#m
Kick the dust up,
Back it on up,
Fill your cup up,
Let’s tear it up up
And kick the dust up.

[Solo]

  G#m                                      E      F#    
e|-------------------------|-------------------------|
B|-14b16-14br16-------14b16|-14b16-14br16------------|
G|--------------13-16------|--------------13-16-13---|
D|-------------------------|-------------------------|
A|-------------------------|-------------------------|
E|-------------------------|-------------------------|

  G#m
e|-------------------------|----14-16-19br21-16----16|
B|-14b16-14br16-------14b16|-16-----------------19---|
G|--------------13-16------|-------------------------|
D|-------------------------|-------------------------|
A|-------------------------|-------------------------|
E|-------------------------|-------------------------|


[Bridge]
     G#m
Just follow me down ‘neath the 32 bridge you all gonna be glad you did.
Kick it.




[Chorus]
G#m                                  E F#
  We go way out where there ain’t nobody,
G#m                              E  F#
  We turn this cornfield into a party

[Played quietly during last part of chorus]
e|---------------------------------------------------|
B|-14pbr16-12~--12-14-14b16-14~-14br15br14br15-12~---|
G|---------------------------------------------------|
D|---------------------------------------------------|
A|---------------------------------------------------|
E|---------------------------------------------------|

e|-------------11-14-14b16-14b16-14-14b16------------|
B|----12-12h14---------------------------------------|
G|-13------------------------------------------------|
D|---------------------------------------------------|
A|---------------------------------------------------|
E|---------------------------------------------------|

E
Pedal to the floorboard
B
End up in a four door
F#                     G#m
Burning up a backroad song.
E
Park it and we pile out, baby, watch your step now, 
F#
Better have your boots on.


Guitar 1
e|-------------------------|-------------------------|
B|-9-9---------------------|-9-9---------------------|
G|-----8-8---6h8/9\8/9\8---|-----8-8---6h8/9\8-------|
D|---------6---------------|---------6----------(x2)-|
A|-------------------------|-------------------------|
E|-------------------------|-------------------------|

Guitar 2

e|-------------------------|-------------------------|
B|-------------------------|-------------------------|
G|-------------------------|-------------------------|
D|-6-6---------------------|-6-6----------------(x2)-|
A|-----6-6---4h6/7\6/7\6---|-----6-6---4h6/7\6-------|
E|---------4---------------|---------4---------------|

G#m
Kick the dust up,
Back it on up,
Fill your cup up,
Let’s tear it up up
And kick the dust up.

************************************

| /   slide up
| \   slide down
| h   hammer-on
| p   pull-off
| ~   vibrato
| +   harmonic
| x   Mute note
| b   Bend
| pb  Pre-bend
| br  Bend release
| pbr Pre-bend release
| brb Bend release bend

************************************

            
            
Suggest correction
Creating personal tab
Creating personal tab
You can edit any tab online and save it as your Personal.

You can edit, replace or remove any tab part or add personal notes – all changes will be seen only by you.

Personal tabs can be accessed anytime from any device, even offline.
Learn more »
comments
print report bad tab
2 comments total.
0 reply
kmachman 297 Sep 16, 2015 04:37 PM

Nice.. Thanks!

0 reply
tictaczack17 365 Oct 14, 2015 11:56 AM

Beautiful

guest
You may want to rate the tab now too:
select rating
Wanna post a correction for this tab? Suggest correction