Oops, an error
Loading. Please wait.

Kick The Dust Up Acoustic tab

version 2
version 2

Whole song

Interactive

Video

877 views 3 this week
1 commentread comment
1 2 3 4 5
3 more votes to show rating
add to favorites
×
Save as Personal and add changes to this tab that will be seen only by you. Learn more ›
×
You can save this tab as Personal to edit and correct it or add notes. All changes will be seen only by you. Learn more »
launch autoscroll
font size
0
reset
how to read this tab
guitar tuner
edit
Autoscroll
slow
fast
+/-
esc
set tempo
stop
Author
Difficulty
-------------------------------------------------------------------------------
                             Kick The Dust Up Acoustic- Luke Bryan
-------------------------------------------------------------------------------
Tabbed by: asher_104


e|-------------------|
B|-------------------|
G|-------------------|
D|-------------------|
A|-------------------|
E|-------------------|
Kick the dust up

e|-------------------------7--------------------------------|
B|-----9-7----------7--9-----------9-7----------7--9--------|
G|---------8--6--8----------------------8--6--8-------------|
D|--6--------------------------6----------------------------|
A|----------------------------------------------------------|
E|----------------------------------------------------------|

e|-------------------------7--------------------------------|
B|-----9-7----------7--9-----------9-7----------7--9--------|
G|---------8--6--8----------------------8--6--8-------------|
D|--6--------------------------6----------------------------|
A|----------------------------------------------------------|
E|----------------------------------------------------------|

e|-------------------------7--------------------------------|
B|------9-7----------7--9-----------9-7----------7--9-------|
G|----------8--6--8----------------------8--6--8------------|
D|--6--------------------------6----------------------------|
A|----------------------------------------------------------|
E|----------------------------------------------------------|


e|-------------------------7--------------------------------|
B|-----9-7----------7--9-----------9-7----------7--9--------|
G|---------8--6--8----------------------8--6--8-------------|
D|--6--------------------------6----------------------------|
A|----------------------------------------------------------|
E|----------------------------------------------------------|
All week long it's a farming town

e|-------------------------7--------------------------------|
B|-----9-7----------7--9-----------9-7----------7--9--------|
G|---------8--6--8----------------------8--6--8-------------|
D|--6--------------------------6----------------------------|
A|----------------------------------------------------------|
E|----------------------------------------------------------|

e|-------------------------7--------------------------------|
B|-----9-7----------7--9-----------9-7----------7--9--------|
G|---------8--6--8----------------------8--6--8-------------|
D|--6--------------------------6----------------------------|
A|----------------------------------------------------------|
E|----------------------------------------------------------|
They're making that money grow

e|-------------------------7--------------------------------|
B|-----9-7----------7--9-----------9-7----------7--9--------|
G|---------8--6--8----------------------8--6--8-------------|
D|--6--------------------------6----------------------------|
A|----------------------------------------------------------|
E|----------------------------------------------------------|
Tractors, plows with flashing lights

e|-------------------------7--------------------------------|
B|-----9-7----------7--9-----------9-7----------7--9--------|
G|---------8--6--8----------------------8--6--8-------------|
D|--6--------------------------6----------------------------|
A|----------------------------------------------------------|
E|----------------------------------------------------------|
Backin up a two lane road

e|-------------------------7--------------------------------|
B|-----9-7----------7--9-----------9-7----------7--9--------|
G|---------8--6--8----------------------8--6--8-------------|
D|--6--------------------------6----------------------------|
A|----------------------------------------------------------|
E|----------------------------------------------------------|
They take one last lap around

e|-------------------------7--------------------------------|
B|-----9-7----------7--9-----------9-7----------7--9--------|
G|---------8--6--8----------------------8--6--8-------------|
D|--6--------------------------6----------------------------|
A|----------------------------------------------------------|
E|----------------------------------------------------------|

That sun up high goes down
e|-------------------------7--------------------------------|
B|-----9-7----------7--9-----------9-7----------7--9--------|
G|---------8--6--8----------------------8--6--8-------------|
D|--6--------------------------6----------------------------|
A|----------------------------------------------------------|
E|----------------------------------------------------------|
And then it's on, come on, girl, kick it on back

e|-------------------|
B|-------------------|
G|-------------------|
D|-------------------|
A|-------------------|
E|-------------------|
Z71 like a Cadillac

   Bm

e|-1---1-1---1---1-1-------|
B|-2---2-2---2---2-2-------|
G|-3---3-3---3---3-3-------|
D|-4---4-4---4---4-4-------|
A|-1---1-1---1---1-1-------|
E|-1---1-1---1---1-1-------|
We go way out where

e|-1---1-1---1---1-1-------|
B|-2---2-2---2---2-2-------|
G|-3---3-3---3---3-3-------|
D|-4---4-4---4---4-4-------|
A|-1---1-1---1---1-1-------|
E|-1---1-1---1---1-1-------|
There ain't nobody

e|-1---1-1---1---1-1-------|
B|-2---2-2---2---2-2-------|
G|-3---3-3---3---3-3-------|
D|-4---4-4---4---4-4-------|
A|-1---1-1---1---1-1-------|
E|-1---1-1---1---1-1-------|
We turn this cornfield

e|-1---1-1---1---1-1-------|
B|-2---2-2---2---2-2-------|
G|-3---3-3---3---3-3-------|
D|-4---4-4---4---4-4-------|
A|-1---1-1---1---1-1-------|
E|-1---1-1---1---1-1-------|
Into a party

e|-1---1-1---1---1-1-------|
B|-2---2-2---2---2-2-------|
G|-3---3-3---3---3-3-------|
D|-4---4-4---4---4-4-------|
A|-1---1-1---1---1-1-------|
E|-1---1-1---1---1-1-------|
Pedal to the floorboard

e|-1---1-1---1---1-1-------|
B|-2---2-2---2---2-2-------|
G|-3---3-3---3---3-3-------|
D|-4---4-4---4---4-4-------|
A|-1---1-1---1---1-1-------|
E|-1---1-1---1---1-1-------|
Eight up in a four door

e|-1---1-1---1---1-1-------|
B|-2---2-2---2---2-2-------|
G|-3---3-3---3---3-3-------|
D|-4---4-4---4---4-4-------|
A|-1---1-1---1---1-1-------|
E|-1---1-1---1---1-1-------|
Burnin up a back road song

e|-1---1-1---1---1-1-------|
B|-2---2-2---2---2-2-------|
G|-3---3-3---3---3-3-------|
D|-4---4-4---4---4-4-------|
A|-1---1-1---1---1-1-------|
E|-1---1-1---1---1-1-------|
Park it and we pile out

e|-1---1-1---1---1-1-------|
B|-2---2-2---2---2-2-------|
G|-3---3-3---3---3-3-------|
D|-4---4-4---4---4-4-------|
A|-1---1-1---1---1-1-------|
E|-1---1-1---1---1-1-------|
Baby, watch your step now

e|-1---1-1---1---1-1-------|
B|-2---2-2---2---2-2-------|
G|-3---3-3---3---3-3-------|
D|-4---4-4---4---4-4-------|
A|-1---1-1---1---1-1-------|
E|-1---1-1---1---1-1-------|
Better have your boots on

e|-1---1-1---1---1-1-------|
B|-2---2-2---2---2-2-------|
G|-3---3-3---3---3-3-------|
D|-4---4-4---4---4-4-------|
A|-1---1-1---1---1-1-------|
E|-1---1-1---1---1-1-------|
Kick the dust up

e|-1---1-1---1---1-1-------|
B|-2---2-2---2---2-2-------|
G|-3---3-3---3---3-3-------|
D|-4---4-4---4---4-4-------|
A|-1---1-1---1---1-1-------|
E|-1---1-1---1---1-1-------|
Back it on up

e|-1---1-1---1---1-1-------|
B|-2---2-2---2---2-2-------|
G|-3---3-3---3---3-3-------|
D|-4---4-4---4---4-4-------|
A|-1---1-1---1---1-1-------|
E|-1---1-1---1---1-1-------|
Fill your cup up

e|-1---1-1---1---1-1-------|
B|-2---2-2---2---2-2-------|
G|-3---3-3---3---3-3-------|
D|-4---4-4---4---4-4-------|
A|-1---1-1---1---1-1-------|
E|-1---1-1---1---1-1-------|
Let's tear it up up

e|-1---1-1---1---1-1-------|
B|-2---2-2---2---2-2-------|
G|-3---3-3---3---3-3-------|
D|-4---4-4---4---4-4-------|
A|-1---1-1---1---1-1-------|
E|-1---1-1---1---1-1-------|
And kick the dust up

e|-------------------------7--------------------------------|
B|-----9-7----------7--9-----------9-7----------7--9----|
G|---------8--6--8----------------------8--6--8----------|
D|--6--------------------------6---------------------------|
A|-----------------------------------------------------------|
E|-----------------------------------------------------------|
Bar downtown, they got a line

e|-------------------------7--------------------------------|
B|-----9-7----------7--9-----------9-7----------7--9--------|
G|---------8--6--8----------------------8--6--8-------------|
D|--6--------------------------6----------------------------|
A|----------------------------------------------------------|
E|----------------------------------------------------------|
Of people waiting out the door

e|-------------------------7--------------------------------|
B|-----9-7----------7--9-----------9-7----------7--9--------|
G|---------8--6--8----------------------8--6--8-------------|
D|--6--------------------------6----------------------------|
A|----------------------------------------------------------|
E|----------------------------------------------------------|
Ten dollar drinks, it's packed inside

e|-------------------------7--------------------------------|
B|-----9-7----------7--9-----------9-7----------7--9--------|
G|---------8--6--8----------------------8--6--8-------------|
D|--6--------------------------6----------------------------|
A|----------------------------------------------------------|
E|----------------------------------------------------------|
I don't know what they're waitin for

e|-------------------------7--------------------------------|
B|-----9-7----------7--9-----------9-7----------7--9--------|
G|---------8--6--8----------------------8--6--8-------------|
D|--6--------------------------6----------------------------|
A|----------------------------------------------------------|
E|----------------------------------------------------------|
Got me a jar full of clear

e|-------------------------7--------------------------------|
B|-----9-7----------7--9-----------9-7----------7--9--------|
G|---------8--6--8----------------------8--6--8-------------|
D|--6--------------------------6----------------------------|
A|----------------------------------------------------------|
E|----------------------------------------------------------|
And I got that music for your ear

e|-------------------------7--------------------------------|
B|-----9-7----------7--9-----------9-7----------7--9--------|
G|---------8--6--8----------------------8--6--8-------------|
D|--6--------------------------6----------------------------|
A|----------------------------------------------------------|
E|----------------------------------------------------------|
And it's like knock knock knock goes the diesel

e|-------------------------7--------------------------------|
B|-----9-7----------7--9-----------9-7----------7--9--------|
G|---------8--6--8----------------------8--6--8-------------|
D|--6--------------------------6----------------------------|
A|----------------------------------------------------------|
E|----------------------------------------------------------|
If you really wanna see the beautiful people

e|-1---1-1---1---1-1-------|
B|-2---2-2---2---2-2-------|
G|-3---3-3---3---3-3-------|
D|-4---4-4---4---4-4-------|
A|-1---1-1---1---1-1-------|
E|-1---1-1---1---1-1-------|
We go way out where

e|-1---1-1---1---1-1-------|
B|-2---2-2---2---2-2-------|
G|-3---3-3---3---3-3-------|
D|-4---4-4---4---4-4-------|
A|-1---1-1---1---1-1-------|
E|-1---1-1---1---1-1-------|
There ain't nobody

e|-1---1-1---1---1-1-------|
B|-2---2-2---2---2-2-------|
G|-3---3-3---3---3-3-------|
D|-4---4-4---4---4-4-------|
A|-1---1-1---1---1-1-------|
E|-1---1-1---1---1-1-------|
We turn this cornfield

e|-1---1-1---1---1-1-------|
B|-2---2-2---2---2-2-------|
G|-3---3-3---3---3-3-------|
D|-4---4-4---4---4-4-------|
A|-1---1-1---1---1-1-------|
E|-1---1-1---1---1-1-------|
Into a party

e|-1---1-1---1---1-1-------|
B|-2---2-2---2---2-2-------|
G|-3---3-3---3---3-3-------|
D|-4---4-4---4---4-4-------|
A|-1---1-1---1---1-1-------|
E|-1---1-1---1---1-1-------|
Pedal to the floorboard

e|-1---1-1---1---1-1-------|
B|-2---2-2---2---2-2-------|
G|-3---3-3---3---3-3-------|
D|-4---4-4---4---4-4-------|
A|-1---1-1---1---1-1-------|
E|-1---1-1---1---1-1-------|
Eight up in a four door

e|-1---1-1---1---1-1-------|
B|-2---2-2---2---2-2-------|
G|-3---3-3---3---3-3-------|
D|-4---4-4---4---4-4-------|
A|-1---1-1---1---1-1-------|
E|-1---1-1---1---1-1-------|
Burnin up a back road song

e|-1---1-1---1---1-1-------|
B|-2---2-2---2---2-2-------|
G|-3---3-3---3---3-3-------|
D|-4---4-4---4---4-4-------|
A|-1---1-1---1---1-1-------|
E|-1---1-1---1---1-1-------|
Park it and we pile out

e|-1---1-1---1---1-1-------|
B|-2---2-2---2---2-2-------|
G|-3---3-3---3---3-3-------|
D|-4---4-4---4---4-4-------|
A|-1---1-1---1---1-1-------|
E|-1---1-1---1---1-1-------|
Baby, watch your step now

e|-1---1-1---1---1-1-------|
B|-2---2-2---2---2-2-------|
G|-3---3-3---3---3-3-------|
D|-4---4-4---4---4-4-------|
A|-1---1-1---1---1-1-------|
E|-1---1-1---1---1-1-------|
Better have your boots on

e|-------------------------7--------------------------------|
B|-----9-7----------7--9-----------9-7----------7--9--------|
G|---------8--6--8----------------------8--6--8-------------|
D|--6--------------------------6----------------------------|
A|----------------------------------------------------------|
E|----------------------------------------------------------|
Kick the dust up

e|-------------------------7--------------------------------|
B|-----9-7----------7--9-----------9-7----------7--9--------|
G|---------8--6--8----------------------8--6--8-------------|
D|--6--------------------------6----------------------------|
A|----------------------------------------------------------|
E|----------------------------------------------------------|
Let's back it on up

e|-------------------------7--------------------------------|
B|-----9-7----------7--9-----------9-7----------7--9--------|
G|---------8--6--8----------------------8--6--8-------------|
D|--6--------------------------6----------------------------|
A|----------------------------------------------------------|
E|----------------------------------------------------------|
Fill your cup up

e|-------------------------7--------------------------------|
B|-----9-7----------7--9-----------9-7----------7--9--------|
G|---------8--6--8----------------------8--6--8-------------|
D|--6--------------------------6----------------------------|
A|----------------------------------------------------------|
E|----------------------------------------------------------|
Let's tear it up up

e|-------------------------7--------------------------------|
B|-----9-7----------7--9-----------9-7----------7--9--------|
G|---------8--6--8----------------------8--6--8-------------|
D|--6--------------------------6----------------------------|
A|----------------------------------------------------------|
E|----------------------------------------------------------|
And kick the dust up

electric: solo
acoustic:
e|-1---1-1---1---1-1-------|
B|-2---2-2---2---2-2-------|
G|-3---3-3---3---3-3-------|
D|-4---4-4---4---4-4-------|
A|-1---1-1---1---1-1-------|
E|-1---1-1---1---1-1-------|

e|-1---1-1---1---1-1-------|
B|-2---2-2---2---2-2-------|
G|-3---3-3---3---3-3-------|
D|-4---4-4---4---4-4-------|
A|-1---1-1---1---1-1-------|
E|-1---1-1---1---1-1-------|

e|-1---1-1---1---1-1-------|
B|-2---2-2---2---2-2-------|
G|-3---3-3---3---3-3-------|
D|-4---4-4---4---4-4-------|
A|-1---1-1---1---1-1-------|
E|-1---1-1---1---1-1-------|

e|-1---1-1---1---1-1-------|
B|-2---2-2---2---2-2-------|
G|-3---3-3---3---3-3-------|
D|-4---4-4---4---4-4-------|
A|-1---1-1---1---1-1-------|
E|-1---1-1---1---1-1-------|


e|-------------------------7--------------------------------|
B|-----9-7----------7--9-----------9-7----------7--9--------|
G|---------8--6--8----------------------8--6--8-------------|
D|--6--------------------------6----------------------------|
A|----------------------------------------------------------|
E|----------------------------------------------------------|
Just follow me down 'neath the 32 bridge

e|-------------------------7--------------------------------|
B|-----9-7----------7--9-----------9-7----------7--9--------|
G|---------8--6--8----------------------8--6--8-------------|
D|--6--------------------------6----------------------------|
A|----------------------------------------------------------|
E|----------------------------------------------------------|
Y'all be glad you did

e|-------------------------7--------------------------------|
B|-----9-7----------7--9-----------9-7----------7--9--------|
G|---------8--6--8----------------------8--6--8-------------|
D|--6--------------------------6----------------------------|
A|----------------------------------------------------------|
E|----------------------------------------------------------|
Kick it

e|-1---1-1---1---1-1-------|
B|-2---2-2---2---2-2-------|
G|-3---3-3---3---3-3-------|
D|-4---4-4---4---4-4-------|
A|-1---1-1---1---1-1-------|
E|-1---1-1---1---1-1-------|
We go way out where

e|-1---1-1---1---1-1-------|
B|-2---2-2---2---2-2-------|
G|-3---3-3---3---3-3-------|
D|-4---4-4---4---4-4-------|
A|-1---1-1---1---1-1-------|
E|-1---1-1---1---1-1-------|
There ain't nobody

e|-1---1-1---1---1-1-------|
B|-2---2-2---2---2-2-------|
G|-3---3-3---3---3-3-------|
D|-4---4-4---4---4-4-------|
A|-1---1-1---1---1-1-------|
E|-1---1-1---1---1-1-------|
We turn this cornfield

e|-1---1-1---1---1-1-------|
B|-2---2-2---2---2-2-------|
G|-3---3-3---3---3-3-------|
D|-4---4-4---4---4-4-------|
A|-1---1-1---1---1-1-------|
E|-1---1-1---1---1-1-------|
Into a party

e|-1---1-1---1---1-1-------|
B|-2---2-2---2---2-2-------|
G|-3---3-3---3---3-3-------|
D|-4---4-4---4---4-4-------|
A|-1---1-1---1---1-1-------|
E|-1---1-1---1---1-1-------|
Pedal to the floorboard

e|-1---1-1---1---1-1-------|
B|-2---2-2---2---2-2-------|
G|-3---3-3---3---3-3-------|
D|-4---4-4---4---4-4-------|
A|-1---1-1---1---1-1-------|
E|-1---1-1---1---1-1-------|
Eight up in a four door

e|-1---1-1---1---1-1-------|
B|-2---2-2---2---2-2-------|
G|-3---3-3---3---3-3-------|
D|-4---4-4---4---4-4-------|
A|-1---1-1---1---1-1-------|
E|-1---1-1---1---1-1-------|
Burnin up a back road song

e|-1---1-1---1---1-1-------|
B|-2---2-2---2---2-2-------|
G|-3---3-3---3---3-3-------|
D|-4---4-4---4---4-4-------|
A|-1---1-1---1---1-1-------|
E|-1---1-1---1---1-1-------|
Park it and we pile out

e|-1---1-1---1---1-1-------|
B|-2---2-2---2---2-2-------|
G|-3---3-3---3---3-3-------|
D|-4---4-4---4---4-4-------|
A|-1---1-1---1---1-1-------|
E|-1---1-1---1---1-1-------|
Baby, watch your step now

e|-1---1-1---1---1-1-------|
B|-2---2-2---2---2-2-------|
G|-3---3-3---3---3-3-------|
D|-4---4-4---4---4-4-------|
A|-1---1-1---1---1-1-------|
E|-1---1-1---1---1-1-------|
Better have your boots on

e|-1---1-1---1---1-1-------|
B|-2---2-2---2---2-2-------|
G|-3---3-3---3---3-3-------|
D|-4---4-4---4---4-4-------|
A|-1---1-1---1---1-1-------|
E|-1---1-1---1---1-1-------|
Kick the dust up (kick the dust up)

e|-------------------------7--------------------------------|
B|-----9-7----------7--9-----------9-7----------7--9--------|
G|---------8--6--8----------------------8--6--8-------------|
D|--6--------------------------6----------------------------|
A|----------------------------------------------------------|
E|----------------------------------------------------------|
Back it on up

e|-------------------------7--------------------------------|
B|-----9-7----------7--9-----------9-7----------7--9--------|
G|---------8--6--8----------------------8--6--8-------------|
D|--6--------------------------6----------------------------|
A|----------------------------------------------------------|
E|----------------------------------------------------------|
Fill your cup up

e|-------------------------7--------------------------------|
B|-----9-7----------7--9-----------9-7----------7--9--------|
G|---------8--6--8----------------------8--6--8-------------|
D|--6--------------------------6----------------------------|
A|----------------------------------------------------------|
E|----------------------------------------------------------|
That's what's up up

e|-------------------------7--------------------------------|
B|-----9-7----------7--9-----------9-7----------7--9--------|
G|---------8--6--8----------------------8--6--8-------------|
D|--6--------------------------6----------------------------|
A|----------------------------------------------------------|
E|----------------------------------------------------------|
Let's kick the dust up

************************************

| /   slide up
| \   slide down
| h   hammer-on
| p   pull-off
| ~   vibrato
| +   harmonic
| x   Mute note
| b   Bend
| pb  Pre-bend
| br  Bend release
| pbr Pre-bend release
| brb Bend release bend

************************************
Suggest correction
Creating personal tab
Creating personal tab
You can edit any tab online and save it as your Personal.

You can edit, replace or remove any tab part or add personal notes – all changes will be seen only by you.

Personal tabs can be accessed anytime from any device, even offline.
Learn more »
Give kudos to tab author, rate the tab!
1 2 3 4 5
comments
print report bad tab
1 comment total.
0 reply
tictaczack17 354 Jul 22, 2015 08:43 PM

didn't like this contribution

guest
You may want to rate the tab now too:
select rating
Wanna post a correction for this tab? Suggest correction