Oops, an error
Loading. Please wait.

Thats My Kind Of Night Tab

version 2
version 2

Intro

594 views 3 this week
no commentswrite comment
1 2 3 4 5
please rate
add to favorites
launch autoscroll
font size
0
reset
how to read this tab
guitar tuner
Tab Pro tools
  • play this tab
  • loop segment
  • change instrument
  • show fretboard
  • metronome
Autoscroll
slow
fast
+/-
esc
set tempo
stop
Contributor
Difficulty
novice
    This is my first tab but I'm pretty sure its on key. fun song to play ENJOY!
e|---------------------------------------------------------------------------------|
B|-------------------------2-------------------------------------------------------|
G|------9------------------2----x2-------------------------------------------------|
D|------9------------------2-------------------------------------------------------|
A|------7-------5-7-5--------------------------------------------------------------|
E|---------------------------------------------------------------------------------|
 play after rilling on 35's then play intro again
e|-------------------------------------------------------------------------------------|
B|-----3h555555------------------------------------------------------------------------|
G|----------------------x2-------------------------------------------------------------|
D|-------------------------------------------------------------------------------------|
A|-------------------------------------------------------------------------------------|
E|-------------------------------------------------------------------------------------|
    Chorus
e|-------------------------------------------------------------------------------|
B|-------------------------------------------------------------------------------|
G|-------5-----------------------------------------------------------------------|
D|-------5----------5------------------------------------------------------------|
A|-------3----------5------------------------------------------------------------|
E|------------------3------------------------------------------------------------|


| /   slide up
| \   slide down
| h   hammer-on
| p   pull-off
| ~   vibrato
| +   harmonic
| x   Mute note
| b   Bend
| pb  Pre-bend
| br  Bend release
| pbr Pre-bend release
| brb Bend release bend
comments
We did not receive enough feedback on this tab! Please rate:
print report bad tab
1 2 3 4 5
I want to post or [tab]
guest
You may want to rate the tab now too:
select rating
Please do not post tabs as comments. Select "correction" instead!