Oops, an error
Loading. Please wait.

You And The Beach intro tab

97 views 1 this week
6 commentsread comments
1 2 3 4 5
2 more votes to show rating
add to favorites
×
Save as Personal and add changes to this tab that will be seen only by you. Learn more ›
×
You can save this tab as Personal to edit and correct it or add notes. All changes will be seen only by you. Learn more »
launch autoscroll
font size
0
reset
how to read this tab
guitar tuner
edit
Autoscroll
slow
fast
+/-
esc
set tempo
stop
Author
Difficulty
-------------------------------------------------------------------------------
                             YOU AND THE BEACH - Luke Bryan
-------------------------------------------------------------------------------
Tabbed by: Zack Ouellette
E-mail: zack_ouellette@icloud.com

Tuning:

PART 1 :

e|---------------------------------------------------------------------------|
B|----8-8-8------------------------------------------------------------------|
G|----9-9-9-------9--9--9--------4-4-4--------11-11-11-----------------------|
D|----------------10-10-10-------5-5-5--------12-12-12-----------------------|
A|-/7------------------------------------------------------------------------|
E|-------------/8-------------\3----------/10--------------------------------|

*You can repeat PART 1 to finish the intro or play this 

PART 2 :
e|---------------------------------------------------------------------------|
B|---------------------------------------------------------------------------|
G|---------------------------------------------------------------------------|
D|---------------------------------------------------------------------------|
A|----------2--3-----------------0--2/7-5------------------------------------|
E|-0--2--3--------------------3----------------------------------------------|

*PART 2 can also be used to end the song.

************************************

| /   slide up
| \   slide down
| h   hammer-on
| p   pull-off
| ~   vibrato
| +   harmonic
| x   Mute note
| b   Bend
| pb  Pre-bend
| br  Bend release
| pbr Pre-bend release
| brb Bend release bend

************************************

            
            
Suggest correction
Creating personal tab
Creating personal tab
You can edit any tab online and save it as your Personal.

You can edit, replace or remove any tab part or add personal notes – all changes will be seen only by you.

Personal tabs can be accessed anytime from any device, even offline.
Learn more »
Give kudos to tab author, rate the tab!
1 2 3 4 5
comments
print report bad tab
6 comments total. Showing first comments.
-2 reply
StarChords117 737 Jan 23, 2016 03:56 AM

For part 2 it is actually

e|------------------------|
B|------------------------|
G|------------------------|
D|------------------------|
A|------------------2/7\5-|
E|-0-2-3-7\5\3---3-5------|

-1 reply
StarChords117 737 Jan 24, 2016 04:25 AM

Did you even hear the song before you did part 2?????

guest
You may want to rate the tab now too:
select rating
Wanna post a correction for this tab? Suggest correction