Oops, an error
Loading. Please wait.

Empty Corridors tab

version 1
version 1

Whole song

Interactive

16,846 views 6 this week
1 commentread comment
1 2 3 4 5
x 7
add to favorites
×
Save as Personal and add changes to this tab that will be seen only by you. Learn more ›
×
You can save this tab as Personal to edit and correct it or add notes. All changes will be seen only by you. Learn more »
launch autoscroll
font size
0
reset
how to read this tab
guitar tuner
edit
Autoscroll
slow
fast
+/-
esc
set tempo
stop
Empty Corridors - Luke Pickett

Album: For Every Petal Lost; Another Gained
Label: The Canvas Room
Website: www.lukepickett.com and/or www.myspace.com/lukepickett

Tabbed by: Nick M. www.myspace.com/kinsleyband and/or myspace.com/nicmat42
Email: nicmat42@hotmail.com

Standard Tuning (EADGBe)
Capo on 6
All notes relative to capo

Intro
|-------2----0-----2---0-------|-------2-----0-----2---0-------|
|------------------------------|-------------------------------|
|----0----0-----0----0---0---0-|----0-----0-----0----0---0---0-|
|-2------------------------2---|-0-------------------------0---|
|------------------------------|-------------------------------|
|------------------------------|-------------------------------|

|-------2-----0-----2---0-------|---------------------------5p0------|
|-------------------------------|-----3p0------------------------0---|
|----0-----0-----0----0---0---0-|---------0---0-----------0--------0-|
|-------------------------------|-2-2-------2---2--2/4--4------------|
|-3-------------------------3---|-0h3--------------3/5---------------|
|-------------------------------|------------------------------------|x2

Verse
|----0------0------0------0----|
|----0------0------0------0----|
|----0------0------0------0----|
|----2------4------2------4----|
|----2------2------3------5----|
|----0------0------------------|x2

Chorus
|----0------0------0------0----|
|----0------0------0------0----|
|----0------0------0------0----|
|----2------2------2------5----|
|----2------2------3------4----|
|----0------0------------------|x1


|----0------0------0------0----|
|----0------0------0------0----|
|----0------0------0------0----|
|----2------4------2------4----|
|----3------5------3------5----|
|------------------------------|x3


|----0------0------0------0----|
|----0------0------0------0----|
|----0------0------0------0----|
|----2------2------2------4----|
|----2------x------3------5----|
|----0------2------------------|x2

repreat intro, verse, chorus

Breakdown
|------------------------------|------------------------------|
|-3----------------------------|----then-----2----------------|
|----0-----------repeat--------|-----he---------0-------------|
|-------2-----------a----------|----adds-----------3----and---|
|------------bunch of times----|----------3-------------it----|
|------------------------------|---------------------continues|

for the rest of the breakdown he is basically playing around with variations of

|---0-----0--------------------|
|---0-----0--------------------|
|---0-----0--------------------|
|---2-----2--------------------|
|---2-----3--------------------|
|---0--------------------------|

and the rest of the song

Outro
|---0-----0--------------------|
|---0-----0--------------------|
|---0-----0--------------------|
|---2-----2--------------------|
|---2-----3--------------------|
|---0--------------------------|

finally finishes with

|---0----0----0~---------------|
|---0----0----0~---------------|
|---0----0----0~---------------|
|---2----2----2~---------------|
|---2----x----3~---------------|
|---0----2---------------------|

enjoy.

            
            
Suggest correction
Creating personal tab
Creating personal tab
You can edit any tab online and save it as your Personal.

You can edit, replace or remove any tab part or add personal notes – all changes will be seen only by you.

Personal tabs can be accessed anytime from any device, even offline.
Learn more »
comments
print report bad tab
1 comment total.
0 reply
rockobsesse 244 Apr 11, 2009 06:40 PM

great tab man!

guest
You may want to rate the tab now too:
select rating
Wanna post a correction for this tab? Suggest correction