Oops, an error
Loading. Please wait.

Empty Corridors Tab

version 2
version 2

Whole song

Interactive

10,205 views 12 this week
1 commentread comment
1 2 3 4 5
x 7
add to favorites
launch autoscroll
font size
0
reset
how to read this tab
guitar tuner
Autoscroll
slow
fast
+/-
esc
set tempo
stop
Help us to improve Ultimate-Guitar.com Take our survey!
×
Difficulty
Capo
intermediate
6th fret
---------------------------------------------------------------------
                             Empty Corridors - Luke Pickett
---------------------------------------------------------------------
Tabbed by:Rory Rodriguez
Email:RVDflyer89@aol.com

Saw another tab on here, it's okay but I watched the live video and I pretty much saw
what he was playing. the strum pattern is pretty generic but He kinda messes around with
chords and opening riff so don't feel obligated to play exactly what I've written down, 
fun with it. any questions at all, email me.

Tuning:EADGBE (Capo 6th Fret)

"As I Fall..." (0:00)
e|------0---0---------0---0-----------0---0------------------5p0----|
B|----7---7--7-7----7---7--7-7------7---7--7-7---3p0-0-----------0--|
G|---0-0-0-0--0----0-0-0-0--0------0-0-0-0--0---------0----0----0---|
D|----------------------------------------------2---2-----4-4-------| (x2)
A|-7~------------5~----------------------------3-------3/5----------|
E|-------------------------------5~---------------------------------|

"Replace These Veins..." (0:29)
e|-000000000-00000000-000000000-00000000----------------------------|
B|-000000000-00000000-000000000-00000000----------------------------|
G|-000000000-00000000-000000000-00000000----------------------------|
D|-555555555-44444444-444444444-44444444----------------------------|(x2)
A|-777777777-22222222-333333333-55555555----------------------------|
E|-000000000-22222222-333333333-55555555----------------------------|

"Heart...." (0:58)
e|-0000000000000000-------------------------------------------------|
B|-0000000077777777-------------------------------------------------|
G|-0000000000000000-------------------------------------------------|
D|-5555555555550000-------------------------------------------------|(x1)
A|-7777777777777777-------------------------------------------------|
E|-0000000000000000-------------------------------------------------|

"With the lights out.." (1:05)
e|-33333333-5555555-33333333-5555555--------------------------------|
B|-00000000-0000000-00000000-0000000--------------------------------|
G|-00000000-0000000-00000000-0000000--------------------------------|
D|-0h222222-4444444-0h222222-4444444--------------------------------|(x2)
A|-33333333-5555555-33333333-5555555--------------------------------|
E|------------------------------------------------------------------|

"Oh Ohhh..." (1:35)
e|-0000-0000000-00000000--------------------------------------------|
B|-0000-0000000-00000000--------------------------------------------|
G|-0000-0000000-00000000--------------------------------------------|
D|-5555-5555555-22222222--------------------------------------------|(x2)
A|-7777-4444444-33333333--------------------------------------------|
E|-0000-5555555-----------------------------------------------------|

"..." (1:46)
e|-00000000-00000000------------------------------------------------|
B|-00000000-00000000------------------------------------------------|
G|-00000000-00000000------------------------------------------------|
D|-22222222-44444444------------------------------------------------|(x1)
A|-33333333-55555555------------------------------------------------|
E|------------------------------------------------------------------|

"As you stand..." (1:52)
e|------0---0---------0---0-----------0---0------------------5p0----|
B|----7---7--7-7----7---7--7-7------7---7--7-7---3p0-0-----------0--|
G|---0-0-0-0--0----0-0-0-0--0------0-0-0-0--0---------0----0----0---|
D|----------------------------------------------2---2-----4-4-------| (x2)
A|-7~------------5~----------------------------3-------3/5----------|
E|-------------------------------5~---------------------------------|

"Now I'm your escape route..." (2:22)
e|-000000000-00000000-000000000-00000000----------------------------|
B|-000000000-00000000-000000000-00000000----------------------------|
G|-000000000-00000000-000000000-00000000----------------------------|
D|-555555555-44444444-444444444-44444444----------------------------|(x1)
A|-777777777-22222222-333333333-55555555----------------------------|
E|-000000000-22222222-333333333-55555555----------------------------|

"More...." (2:36)
e|-0000000000000000-------------------------------------------------|
B|-0000000077777777-------------------------------------------------|
G|-0000000000000000-------------------------------------------------|
D|-5555555555550000-------------------------------------------------|(x1)
A|-7777777777777777-------------------------------------------------|
E|-0000000000000000-------------------------------------------------|

"With the lights out.." (2:43)
e|-33333333-5555555-33333333-5555555--------------------------------|
B|-00000000-0000000-00000000-0000000--------------------------------|
G|-00000000-0000000-00000000-0000000--------------------------------|
D|-0h222222-4444444-0h222222-4444444--------------------------------|(x2)
A|-33333333-5555555-33333333-5555555--------------------------------|
E|------------------------------------------------------------------|

"Oh Ohhh..." (3:12)
e|-0000-0000000-00000000--------------------------------------------|
B|-0000-0000000-00000000--------------------------------------------|
G|-0000-0000000-00000000--------------------------------------------|
D|-5555-5555555-22222222--------------------------------------------|(x1)
A|-7777-4444444-33333333--------------------------------------------|
E|-0000-5555555-----------------------------------------------------|


"When she..." (3:20)
e|-0000-0000000-----------------------------------------------------|
B|-0000-0000000--3--3--3--3--3---3--3--3--3--3----------------------|
G|-0000-0000000---0--0--0--0--0---0--0--0--0--0---------------------|
D|-5555-5555555----2--2--2--2--2---4--4--4--4--4--------------------|(x1)
A|-7777-4444444-3---------------3-----------------------------------|
E|-0000-5555555-----------------------------------------------------|

"..." (3:31)
e|--0--0--0--0--0---0--0--0--0--0-----------------------------------|
B|--3--3--3--3--3---3--3--3--3--3-----------------------------------|
G|---0--0--0--0--0---0--0--0--0--0----------------------------------|
D|----2--2--2--2--2---4--4--4--4--4---------------------------------|(x1)
A|-3---------------3------------------------------------------------|
E|------------------------------------------------------------------|

"..." (3:38) *not the exact strum pattern, but if you listen to the song you'll get it*
e|---0---0--0--0--0------0000-------0000-00000000-------------------|
B|---0---0--0--0--0------0000-------0000-00000000-------------------|
G|---0---0--0--0--0------0000-------0000-00000000-------------------|
D|---0h9-9--9--9--9--0h7-7777---0h7-7777-99999999-------------------|(x4)
A|---10--10-10-10-10-9---9999---9---9999-77777777-------------------|
E|-000---0--0--0--0----------888----8888-88888888-------------------|

"I'll Tear out.." (4:08) *Same chord structure til the end*
e|-0---0--0--0--0--0--0--0----00000000-00000000---------------------|
B|-0---0--0--0--0--0--0--0----00000000-00000000---------------------|
G|-0---0--0--0--0--0--0--0----00000000-00000000---------------------|
D|-0h9-9--9--9--9--9--9--9----77777777-99999999---------------------|(x8)
A|-10--10-10-10-10-10-10-10---99999999-77777777---------------------|
E|-0---0--0--0--0--0--0--0----88888888-88888888---------------------|

"..." (5:06)
e|-0000-0000000-0~--------------------------------------------------|
B|-0000-0000000-0~--------------------------------------------------|
G|-0000-0000000-0~--------------------------------------------------|
D|-5555-5555555-2~--------------------------------------------------|(x1)
A|-7777-4444444-3~--------------------------------------------------|
E|-0000-5555555-----------------------------------------------------|


| /  slide up
| \  slide down
| h  hammer-on
| p  pull-off
| ~  Let note ring
| +  harmonic
| x  Mute note
====================================================================
Suggest correction
comments
print report bad tab
1 comment total.
0 reply
GuitarMarv 113 May 03, 2007 12:29 PM

Awesome dude...this is pretty much it :-) 5 Stars!!!

guest
You may want to rate the tab now too:
select rating
Wanna post a correction for this tab? Suggest correction