Oops, an error
Loading. Please wait.

Fail For You tab

version 1
version 1

Whole song

  • The tab is based off the repeating musical idea th... Show more
55 views 3 this week
no commentswrite comment
1 2 3 4 5
3 more votes to show rating
add to favorites
×
Save as Personal and add changes to this tab that will be seen only by you. Learn more ›
×
You can save this tab as Personal to edit and correct it or add notes. All changes will be seen only by you. Learn more »
launch autoscroll
font size
0
reset
how to read this tab
guitar tuner
edit
Autoscroll
slow
fast
+/-
esc
set tempo
stop
About this tab version
The tab is based off the repeating musical idea throughout which Luke alters as the song progresses. Feel free to improvise endings to lines etc. Was this info helpful? Yes No
[Intro]
  C                                Em
e|--------------------------------|--------------------------------|
B|--------1---------------1-----0-|--------0---------------0-----0-|
G|----0-----0---0-----0-----0-----|----0-----0---0-----0-----0-----|
D|--2---2-----2-----2---2-----2---|--2---2-----2-----2---2-----2---|
A|3---------------3---------------|--------------------------------|
E|--------------------------------|0---------------0---------------|

  Am                               G
e|------------------------0-------|--------------------------------|
B|1-------1-----------------1-----|--------1-----0---------0h1-----|
G|--2---2---2---2-----2-------2---|----0-----0---------0---------0-|
D|----2-------2-----2---2-------2-|--0---0-----0-----0---0---------|
A|0---------------0---------------|--------------------------------|
E|--------------------------------|3---------------3---------------|

[Verse]
  C                                Em
e|--------------------------------|--------------------------------|
B|--------1---------------1-----0-|--------0---------------0-----0-|
G|----0-----0---0-----0-----0-----|----0-----0---0-----0-----0-----|
D|--2---2-----2-----2---2-----2---|--2---2-----2-----2---2-----2---|
A|3---------------3---------------|--------------------------------|
E|--------------------------------|0---------------0---------------|

                  This is getting hard to bear,

  Am                               G
e|------------------------0-------|--------------------------------|
B|1-------1-----------------1-----|--------1-----0---------0h1-----|
G|--2---2---2---2-----2-------2---|----0-----0---------0---------0-|
D|----2-------2-----2---2-------2-|--0---0-----0-----0---0---------|
A|0---------------0---------------|--------------------------------|
E|--------------------------------|3---------------3---------------|

                  Face it I'm not getting through

  C                                Em
e|--------------------------------|--------------------------------|
B|--------1---------------1-----0-|--------0---------------0-----0-|
G|----0-----0---0-----0-----0-----|----0-----0---0-----0-----0-----|
D|--2---2-----2-----2---2-----2---|--2---2-----2-----2---2-----2---|
A|3---------------3---------------|--------------------------------|
E|--------------------------------|0---------------0---------------|

                  I don't even think you care

  Am                               G
e|------------------------0-------|--------------------------------|
B|1-------1-----------------1-----|--------1-----0---------0h1-----|
G|--2---2---2---2-----2-------2---|----0-----0---------0---------0-|
D|----2-------2-----2---2-------2-|--0---0-----0-----0---0---------|
A|0---------------0---------------|--------------------------------|
E|--------------------------------|3---------------3---------------|

                  All the things I've won for you

[Pre-chorus]
  Am              G                C               F
e|--------------------------------|--------------------------------|
B|--------1-----0---------0-----1-|--------1-----1---------1-------|
G|----2-----2---------0-----0-----|----0-----0---------2-----2---2-|
D|--2---2-----2-----0---0-----0---|--2---2-----2-----3---3-----3---|
A|0-------------------------------|3-------------------------------|
E|----------------3---------------|----------------1---------------|

  I have been your champion

  Am              G                C               
e|--------------------------------(--------------------------------)
B|--------1-----0---------0-----1-(--------1-----1---------1-----1-)
G|----2-----2---------0-----0-----(----0-----0---------0-----0-----)
D|--2---2-----2-----0---0-----0---(--2---2-----2-----2---2-----2---)
A|0--------------------------- ---(3---------------3---------------)
E|----------------3---------------(--------------------------------)

So why do you walk away

[Chorus]
  F                                Am      C     G
e|--------------------------------|--------------------------------|
B|--------1---------------1-------|------1-------0---------0p1-----|
G|----2-----2---2-----2-----2---2-|----2-------0-------0-------0---|
D|--3---3-----3-----3---3-----3---|--2-------2-------0---0-------0-|
A|--------------------------------|0-------3-----------------------|
E|1---------------1---------------|----------------3---------------|

  I bought you the sky

  C                                G
e|--------------------------------|--------------------------------|
B|--------1---------------1-----0-|--------0---------------0h1-----|
G|----0-----0---0-----0-----0-----|----0-----0---0-----0-------0---|
D|--2---2-----2-----2---2-----2---|--0---0-----0-----0---0-------0-|
A|3---------------3---------------|--------------------------------|
E|--------------------------------|3---------------3---------------|

                    And the oceans too

  F                                Am      C     G       C    (slowing)
e|--------------------------------|--------------------------------|
B|--------1---------------1-------|------1-------0-------1-------1-|
G|----2-----2---2-----2-----2---2-|----2-------0-------0-------0---|
D|--3---3-----3-----3---3-----3---|--2-------2-------0-------2-----|
A|--------------------------------|0-------3---------------3-------|
E|1---------------1---------------|----------------3---------------|

  By the look in your eye

  F                C
e|----------------|--------------------------------|
B|--------1-------|--------1---------------1-----0-|
G|----2-----2---2-|----0-----0---0-----0-----0-----|
D|--3---3-----3---|--2---2-----2-----2---2-----2---|
A|----------------|3---------------3---------------|
E|1---------------|--------------------------------|

  The only thing I couldn't do,      Is fail for you

  G
e|---------------(----------------)
B|--------0------(--------0h1-----)
G|----0-----0---0(----0-----------)
D|--0---0-----0--(--0---0---------)
A|---------------(----------------)
E|3--------------(3---------------)

  Don't ask me to fail for you

[Interlude]
  C                                Em
e|--------------------------------|--------------------------------|
B|--------1---------------1-----0-|--------0---------------0-----0-|
G|----0-----0---0-----0-----0-----|----0-----0---0-----0-----0-----|
D|--2---2-----2-----2---2-----2---|--2---2-----2-----2---2-----2---|
A|3---------------3---------------|--------------------------------|
E|--------------------------------|0---------------0---------------|

  Am                               G
e|--------------------------------|--------------------------------|
B|1-------1---------------1-------|--------1-----0---------0-------|
G|--2---2---2---2-----2-----2---0-|----0-----0---------0-----0---0-|
D|----2-------2-----2---2-----2---|--0---0-----0-----0---0-----0---|
A|0---------------0---------------|--------------------------------|
E|--------------------------------|3---------------3---------------|

[Verse]
  C                                Em
e|--------------------------------|--------------------------------|
B|--------1---------------1-----0-|--------0---------------0-----0-|
G|----0-----0---0-----0-----0-----|----0-----0---0-----0-----0-----|
D|--2---2-----2-----2---2-----2---|--2---2-----2-----2---2-----2---|
A|3---------------3---------------|--------------------------------|
E|--------------------------------|0---------------0---------------|

                  My neck is so weighed down with gold

  Am                               G
e|------------------------0-------|--------------------------------|
B|1-------1-----------------1-----|--------1-----0---------0h1-----|
G|--2---2---2---2-----2-------2---|----0-----0---------0---------0-|
D|----2-------2-----2---2-------2-|--0---0-----0-----0---0---------|
A|0---------------0---------------|--------------------------------|
E|--------------------------------|3---------------3---------------|

                  My glory always on display

  C                                Em
e|--------------------------------|--------------------------------|
B|--------1---------------1-----0-|--------0---------------0-----0-|
G|----0-----0---0-----0-----0-----|----0-----0---0-----0-----0-----|
D|--2---2-----2-----2---2-----2---|--2---2-----2-----2---2-----2---|
A|3---------------3---------------|--------------------------------|
E|--------------------------------|0---------------0---------------|

                  Strangers in the street behold

  Am                               G
e|------------------------0-------|--------------------------------|
B|1-------1-----------------1-----|--------1-----0---------0h1-----|
G|--2---2---2---2-----2-------2---|----0-----0---------0---------0-|
D|----2-------2-----2---2-------2-|--0---0-----0-----0---0---------|
A|0---------------0---------------|--------------------------------|
E|--------------------------------|3---------------3---------------|

                  But you just turn your head away

[Pre-chorus]
  Am              G                C               F
e|--------------------------------|--------------------------------|
B|--------1-----0---------0-----1-|--------1-----1---------1-------|
G|----2-----2---------0-----0-----|----0-----0---------2-----2---2-|
D|--2---2-----2-----0---0-----0---|--2---2-----2-----3---3-----3---|
A|0-------------------------------|3-------------------------------|
E|----------------3---------------|----------------1---------------|

  I will be your victory

  Am              G                C               
e|--------------------------------(--------------------------------)
B|--------1-----0---------0-----1-(--------1-----1---------1-----1-)
G|----2-----2---------0-----0-----(----0-----0---------0-----0-----)
D|--2---2-----2-----0---0-----0---(--2---2-----2-----2---2-----2---)
A|0-------------------------------(3---------------3---------------)
E|----------------3---------------(--------------------------------)

  But still you walk away

[Chorus]
  F                                Am      C     G
e|--------------------------------|--------------------------------|
B|--------1---------------1-------|------1-------0---------0p1-----|
G|----2-----2---2-----2-----2---2-|----2-------0-------0-------0---|
D|--3---3-----3-----3---3-----3---|--2-------2-------0---0-------0-|
A|--------------------------------|0-------3-----------------------|
E|1---------------1---------------|----------------3---------------|

  I bought you the sky

  C                                G
e|--------------------------------|--------------------------------|
B|--------1---------------1-----0-|--------0---------------0h1-----|
G|----0-----0---0-----0-----0-----|----0-----0---0-----0-------0---|
D|--2---2-----2-----2---2-----2---|--0---0-----0-----0---0-------0-|
A|3---------------3---------------|--------------------------------|
E|--------------------------------|3---------------3---------------|

                     And the oceans too

  F                                Am      C     G       C   (slowing)
e|--------------------------------|--------------------------------|
B|--------1---------------1-------|------1-------0-------1-------1-|
G|----2-----2---2-----2-----2---2-|----2-------0-------0-------0---|
D|--3---3-----3-----3---3-----3---|--2-------2-------0-------2-----|
A|--------------------------------|0-------3---------------3-------|
E|1---------------1---------------|----------------3---------------|

  By the look in your eye

  F                                C
e|--------------------------------|--------------------------------|
B|--------1---------------1-------|--------1---------------1-----0-|
G|----2-----2---2-----2-----2---2-|----0-----0---0-----0-----0-----|
D|--3---3-----3-----3---3-----3---|--2---2-----2-----2---2-----2---|
A|--------------------------------|3---------------3---------------|
E|1---------------1---------------|--------------------------------|

  The only thing I couldn't do,                           fail for you

  G                             Am
e|--------------------------------|--------------------------------|
B|--------0---------------0-------|--------1---------------1-------|
G|----0-----0---0-----0-----0---2-|--2---2---2---2-----2-----2---2-|
D|--0---0-----0-----0---0-----0---|----2-------2-----2---2-----2---|
A|--------------------------------|0---------------0---------------|
E|3---------------3---------------|--------------------------------|

                          fail for you                       Fail for you

  F                                C
e|--------------------------------|--------------------------------|
B|--------1---------------1-------|--------1---------------1-----0-|
G|----2-----2---2-----2-----2---2-|----0-----0---0-----0-----0-----|
D|--3---3-----3-----3---3-----3---|--2---2-----2-----2---2-----2---|
A|--------------------------------|3---------------3---------------|
E|1---------------1---------------|--------------------------------|

                          Fail for you,                    fail for you

  G                             Am
e|--------------------------------|--------------------------------|
B|--------0---------------0-------|--------1---------------1-------|
G|----0-----0---0-----0-----0---2-|--2---2---2---2-----2-----2---2-|
D|--0---0-----0-----0---0-----0---|----2-------2-----2---2-----2---|
A|--------------------------------|0---------------0---------------|
E|3---------------3---------------|--------------------------------|

                          fail for you                       Fail for you

  F               G (slowing)      C
e|--------------------------------|--------------------------------|
B|--------1---------------0-------|---1----------------------------|
G|----2-----2---2-----0-----0---0-|--0-----------------------------|
D|--3---3-----3-----0---0-----0---|-2------------------------------|
A|--------------------------------|3-------------------------------|
E|1---------------3---------------|--------------------------------|

                          fail for you

*****************

| h   Hammer-on

*****************

            
            
Suggest correction
Creating personal tab
Creating personal tab
You can edit any tab online and save it as your Personal.

You can edit, replace or remove any tab part or add personal notes – all changes will be seen only by you.

Personal tabs can be accessed anytime from any device, even offline.
Learn more »
Give kudos to tab author, rate the tab!
1 2 3 4 5
comments
print report bad tab
guest
You may want to rate the tab now too:
select rating
Wanna post a correction for this tab? Suggest correction