Oops, an error
Loading. Please wait.

Uno Resuena tab

19 views 1 this week
no commentswrite comment
1 2 3 4 5
3 more votes to show rating
add to favorites
×
Save as Personal and add changes to this tab that will be seen only by you. Learn more ›
×
You can save this tab as Personal to edit and correct it or add notes. All changes will be seen only by you. Learn more »
launch autoscroll
font size
0
reset
how to read this tab
guitar tuner
edit
Autoscroll
slow
fast
+/-
esc
set tempo
stop
[Verse 1]
E|-------------|-------------|-------------|-------------|
B|--------7----|-------7-----|-------7-----|-------7-----|
G|-----7-------|----7--------|----7--------|----7--------|
D|-9-----------|-9-----------|-9-----------|-9-----------|
A|-------------|-------------|-------------|-------------|
E|-------------|-------------|-------------|-------------|
 
E|-------------|-------------|-------------|-------------|
B|--------5----|-------5-----|-------7-----|-------7-----|
G|-----6-------|----6--------|----7--------|----7--------|
D|-7-----------|-7-----------|-9-----------|-9-----------|
A|-------------|-------------|-------------|-------------|
E|-------------|-------------|-------------|-------------|

Uno resuena desde la raiz 
Presiente el agua profunda subir, subir 
Y el movimiento circula hasta el centro 
Un aro de fuego, aro de fuego. 

El pecho se ensancha y las ramas se alargan 
Casi toco sus manos de flor y trueno 
Vieja montaña y un sabio guerrero 
Con un sólo dia para hacer acuerdos 
Vieja montaña y un sabio guerrero 
Con un sólo día para andar despiertos. 

Lo voy pensando y lo voy tejiendo 
Y las lunas pasan mientras espero 
Sonriendo siento y me sorprendo: 
La lluvia y el viento me traen su aliento. 

El pecho se ensancha y las ramas se alargan 
Casi toco sus manos de flor y trueno 
Vieja montaña y un sabio guerrero 
Con un sólo dia para hacer acuerdos 
Pura cascada y un viejo guerrero 
Con un sólo dia para andar despiertos. 

[Chorus]

E|-------------|-------------|-------------|-------------|
B|--------7----|-------5-----|-------7-----|-------7-----|
G|-----7-------|----6--------|----7--------|----7--------|
D|-9-----------|-7-----------|-9-----------|-9-----------|
A|-------------|-------------|-------------|-------------|
E|-------------|-------------|-------------|-------------|


Uno escoje recordar 
y uno escoje regresar 
A los trinos de colores 
y este puro manantial (BIS) 

[Verse 2]
E|-------------|-------------|-------------|-------------|
B|--------7----|-------7-----|-------7-----|-------7-----|
G|-----7-------|----7--------|----7--------|----7--------|
D|-9-----------|-9-----------|-9-----------|-9-----------|
A|-------------|-------------|-------------|-------------|
E|-------------|-------------|-------------|-------------|
 
E|-------------|-------------|-------------|-------------|
B|--------5----|-------5-----|-------7-----|-------7-----|
G|-----6-------|----6--------|----7--------|----7--------|
D|-7-----------|-7-----------|-9-----------|-9-----------|
A|-------------|-------------|-------------|-------------|
E|-------------|-------------|-------------|-------------|

Si llegué tarde o no es el tiempo 
Sigo vibrando en el reconocimiento 
Que lo que está unido es de bien adentro 
Sierra y laguna, canto de abuelos 
El monte virgen y el fuego viejo 
Trinar del agua, pájaro y trueno. 

[Chorus]

E|-------------|-------------|-------------|-------------|
B|--------7----|-------5-----|-------7-----|-------7-----|
G|-----7-------|----6--------|----7--------|----7--------|
D|-9-----------|-7-----------|-9-----------|-9-----------|
A|-------------|-------------|-------------|-------------|
E|-------------|-------------|-------------|-------------|


Uno escoje recordar 
y uno escoje regresar 
A los trinos de colores 
y este puro manantial 

            
            
Suggest correction
Creating personal tab
Creating personal tab
You can edit any tab online and save it as your Personal.

You can edit, replace or remove any tab part or add personal notes – all changes will be seen only by you.

Personal tabs can be accessed anytime from any device, even offline.
Learn more »
Give kudos to tab author, rate the tab!
1 2 3 4 5
comments
print report bad tab
guest
You may want to rate the tab now too:
select rating
Wanna post a correction for this tab? Suggest correction