Oops, an error
Loading. Please wait.

The Wrong Pill ukulele

7 views 1 this week
no commentswrite comment
1 2 3 4 5
3 more votes to show rating
add to favorites
×
Save as Personal and add changes to this tab that will be seen only by you. Learn more ›
×
You can save this tab as Personal to edit and correct it or add notes. All changes will be seen only by you. Learn more »
launch autoscroll
font size
0
reset
transpose
0
reset
simplify chords
display chords
guitar tuner
edit
Autoscroll
slow
fast
+/-
esc
set tempo
stop
About this tab version
Chords and tab for ukulele, so you can play whichever you prefer. Link: https://www.youtube.com/watch?v=4jBugSDLeHk. Feel free to let me know if you notice any errors, enjoy :). Was this info helpful? Yes No
Strumming
There is no strumming pattern for this song yet. and get +5 IQ
[Intro]
   Fmaj7               Fmaj7              Am7                   Em7
A|---7---12---7---12-|---7---12---7---5-|--------15-----------|-------10---------|
E|-------------------|------------------|---------------------|-0---0----0---0---|
C|-5---5----5---5----|-5---5----5---5---|-9----9----9----9----|------------------|
G|-------------------|------------------|---12--------12---12-|---7--------7---7-|

   Fmaj7               Fmaj7              Am7                   Em7
A|---7---12---7---12-|---7---12---7---5-|--------15-----------|-------10---------|
E|-------------------|------------------|---------------------|-0---0----0---0---|
C|-5---5----5---5----|-5---5----5---5---|-9----9----9----9----|------------------|
G|-------------------|------------------|---12--------12---12-|---7--------7---7-|

[Verse 1]
   Fmaj7                                  Am7                   Em7
A|---7---12---7---12-|---7---12---7---5-|--------15-----------|-------10---------|
E|-------------------|------------------|---------------------|-0---0----0---0---|
C|-5---5----5---5----|-5---5----5---5---|-9----9----9----9----|------------------|
G|-------------------|------------------|---12--------12---12-|---7--------7---7-|

Fmaj7               Am7
She only has to fade
      Em7
For a moment or two

   Fmaj7                                  Am7                   Em7
A|---7---12---7---12-|---7---12---7---5-|--------15-----------|-------10---------|
E|-------------------|------------------|---------------------|-0---0----0---0---|
C|-5---5----5---5----|-5---5----5---5---|-9----9----9----9----|------------------|
G|-------------------|------------------|---12--------12---12-|---7--------7---7-|

Fmaj7                          Am7
It’s enough to clear some space
            Em7
So you come back into view

[Pre-chorus]
   Fmaj7                                  Am7                   Em7
A|---7---12---7---12-|---7---12---7---5-|--------15-----------|-------10---------|
E|-------------------|------------------|---------------------|-0---0----0---0---|
C|-5---5----5---5----|-5---5----5---5---|-9----9----9----9----|------------------|
G|-------------------|------------------|---12--------12---12-|---7--------7---7-|

Fmaj7                     Am7    Em7
Lord knows that I’ve been trying

   Fmaj7                                  Am7                   Em7
A|---7---12---7---12-|---7---12---7---5-|--------15-----------|------------------|
E|-------------------|------------------|---------------------|-0----------------|
C|-5---5----5---5----|-5---5----5---5---|-9----9----9----9----|------------------|
G|-------------------|------------------|---12--------12---12-|------------------|

              Fmaj7                  Am7    Em7
But there are only so many places to hide in

[Chorus]
   Fmaj7                                  Am7                   Em7
A|---7---12---7---12-|---7---12---7---5-|--------15-----------|-------10---------|
E|-------------------|------------------|---------------------|-0---0----0---0---|
C|-5---5----5---5----|-5---5----5---5---|-9----9----9----9----|------------------|
G|-------------------|------------------|---12--------12---12-|---7--------7---7-|

Fmaj7                   Am7
No matter how high I get
          Em7
You still loom above me

   Fmaj7                                  Am7                   Em7
A|---7---12---7---12-|---7---12---7---5-|--------15-----------|-------10---------|
E|-------------------|------------------|---------------------|-0---0----0---0---|
C|-5---5----5---5----|-5---5----5---5---|-9----9----9----9----|------------------|
G|-------------------|------------------|---12--------12---12-|---7--------7---7-|

Fmaj7               Am7
Static on the TV set
                      Em7
I just wanna hear you say you love me

   Fmaj7                                  Am7                   Em7
A|---7---12---7---12-|---7---12---7---5-|--------15-----------|-------10---------|
E|-------------------|------------------|---------------------|-0---0----0---0---|
C|-5---5----5---5----|-5---5----5---5---|-9----9----9----9----|------------------|
G|-------------------|------------------|---12--------12---12-|---7--------7---7-|

Fmaj7                 Am7       Em7
Oh I think I took the wrong pill

   Fmaj7                                  Am7                   Em7
A|---7---12---7---12-|---7---12---7---5-|--------15-----------|------------------|
E|-------------------|------------------|---------------------|-0----------------|
C|-5---5----5---5----|-5---5----5---5---|-9----9----9----9----|------------------|
G|-------------------|------------------|---12--------12---12-|------------------|

Fmaj7                 Am7       Em7
Oh I think I took the wrong pill

[Verse 2]
   Fmaj7                                  Am7                   Em7
A|---7---12---7---12-|---7---12---7---5-|--------15-----------|-------10---------|
E|-------------------|------------------|---------------------|-0---0----0---0---|
C|-5---5----5---5----|-5---5----5---5---|-9----9----9----9----|------------------|
G|-------------------|------------------|---12--------12---12-|---7--------7---7-|

Fmaj7                 Am7
I won’t seek the truth
      Em7
For I know it’s too harsh

   Fmaj7                                  Am7                   Em7
A|---7---12---7---12-|---7---12---7---5-|--------15-----------|-------10---------|
E|-------------------|------------------|---------------------|-0---0----0---0---|
C|-5---5----5---5----|-5---5----5---5---|-9----9----9----9----|------------------|
G|-------------------|------------------|---12--------12---12-|---7--------7---7-|

    Fmaj7
And I still lie with our youth
  Am7         Em7
Romanticizing sorrow into art

[Pre-chorus]
   Fmaj7                                  Am7                   Em7
A|---7---12---7---12-|---7---12---7---5-|--------15-----------|-------10---------|
E|-------------------|------------------|---------------------|-0---0----0---0---|
C|-5---5----5---5----|-5---5----5---5---|-9----9----9----9----|------------------|
G|-------------------|------------------|---12--------12---12-|---7--------7---7-|

Fmaj7                     Am7    Em7
Lord knows that I’ve been trying

   Fmaj7                                  Am7                   Em7
A|---7---12---7---12-|---7---12---7---5-|--------15-----------|------------------|
E|-------------------|------------------|---------------------|-0----------------|
C|-5---5----5---5----|-5---5----5---5---|-9----9----9----9----|------------------|
G|-------------------|------------------|---12--------12---12-|------------------|

              Fmaj7                  Am7    Em7
But there are only so many places to hide in

[Chorus]
   Fmaj7                                  Am7                   Em7
A|---7---12---7---12-|---7---12---7---5-|--------15-----------|-------10---------|
E|-------------------|------------------|---------------------|-0---0----0---0---|
C|-5---5----5---5----|-5---5----5---5---|-9----9----9----9----|------------------|
G|-------------------|------------------|---12--------12---12-|---7--------7---7-|

Fmaj7                   Am7
No matter how high I get
          Em7
You still loom above me

   Fmaj7                                  Am7                   Em7
A|---7---12---7---12-|---7---12---7---5-|--------15-----------|-------10---------|
E|-------------------|------------------|---------------------|-0---0----0---0---|
C|-5---5----5---5----|-5---5----5---5---|-9----9----9----9----|------------------|
G|-------------------|------------------|---12--------12---12-|---7--------7---7-|

Fmaj7               Am7
Static on the TV set
                      Em7
I just wanna hear you say you love me

   Fmaj7                                  Am7                   Em7
A|---7---12---7---12-|---7---12---7---5-|--------15-----------|-------10---------|
E|-------------------|------------------|---------------------|-0---0----0---0---|
C|-5---5----5---5----|-5---5----5---5---|-9----9----9----9----|------------------|
G|-------------------|------------------|---12--------12---12-|---7--------7---7-|

Fmaj7                 Am7       Em7
Oh I think I took the wrong pill

   Fmaj7                                  Am7                   Em7
A|---7---12---7---12-|---7---12---7---5-|--------15-----------|-------10---------|
E|-------------------|------------------|---------------------|-0---0----0---0---|
C|-5---5----5---5----|-5---5----5---5---|-9----9----9----9----|------------------|
G|-------------------|------------------|---12--------12---12-|---7--------7---7-|

Fmaj7                 Am7       Em7
Oh I think I took the wrong pill

[Interlude]

   Fmaj7                                  Am7                   Em7
A|---7---12---7---12-|---7---12---7---5-|--------15-----------|-------10---------|
E|-------------------|------------------|---------------------|-0---0----0---0---|
C|-5---5----5---5----|-5---5----5---5---|-9----9----9----9----|------------------|
G|-------------------|------------------|---12--------12---12-|---7--------7---7-|

Fmaj7 Am7 Em7
Mmmm...

   Fmaj7                                  Am7                   Em7
A|---7---12---7---12-|---7---12---7---5-|--------15-----------|-------10---------|
E|-------------------|------------------|---------------------|-0---0----0---0---|
C|-5---5----5---5----|-5---5----5---5---|-9----9----9----9----|------------------|
G|-------------------|------------------|---12--------12---12-|---7--------7---7-|

[Bridge]
   Fmaj7                                  Am7
A|---7---12---7---12-|---7---12---7---5-|--------15-----------|
E|-------------------|------------------|---------------------|
C|-5---5----5---5----|-5---5----5---5---|-9----9----9----9----|
G|-------------------|------------------|---12--------12---12-|

        Fmaj7        Am7
I can’t feel my hands

   Em7                Fmaj7                                  Am7
A|-------10---------|---7---12---7---12-|---7---12---7---5-|--------15-----------|
E|-0---0----0---0---|-------------------|------------------|---------------------|
C|------------------|-5---5----5---5----|-5---5----5---5---|-9----9----9----9----|
G|---7--------7---7-|-------------------|------------------|---12--------12---12-|

Em7       Fmaj7       Am7
Oh, I can barely stand

   Em7                Fmaj7                                  Am7                   Em7
A|-------10---------|---7---12---7---12-|---7---12---7---5-|--------15-----------|-------10---------|
E|-0---0----0---0---|-------------------|------------------|---------------------|-0---0----0---0---|
C|------------------|-5---5----5---5----|-5---5----5---5---|-9----9----9----9----|------------------|
G|---7--------7---7-|-------------------|------------------|---12--------12---12-|---7--------7---7-|

Em7      Fmaj7      Am7 Em7
Remember all our plans?

   Fmaj7
A|---7---12---7---12-|---7---12---7---5-|-5-------------------|
E|-------------------|------------------|-0-------------------|
C|-5---5----5---5----|-5---5----5---5---|---------------------|
G|-------------------|------------------|---------------------|

     Fmaj7
I can’t feel my hands


[Chorus]
   Fmaj7              Am7
A|-12----------------|-15---------------|
E|-------------------|------------------|
C|-5-----------------|-9----------------|
G|-9-----------------|-12---------------|

Fmaj7                   Am7
No matter how high I get

   Em7
A|-10----------------|
E|-0-----------------|
C|-------------------|
G|-7-----------------|

          Em7
You still loom above me

   Fmaj7              Am7
A|-12----------------|-15---------------|
E|-------------------|------------------|
C|-5-----------------|-9----------------|
G|-9-----------------|-12---------------|

Fmaj7               Am7
Static on the TV set

   Em7
A|-10----------------|
E|-0-----------------|
C|-------------------|
G|-7-----------------|

                      Em7
I just wanna hear you say you love me

   Fmaj7                                  Am7                   Em7
A|---7---12---7---12-|---7---12---7---5-|--------15-----------|-------10---------|
E|-------------------|------------------|---------------------|-0---0----0---0---|
C|-5---5----5---5----|-5---5----5---5---|-9----9----9----9----|------------------|
G|-------------------|------------------|---12--------12---12-|---7--------7---7-|

Fmaj7                 Am7       Em7
Oh I think I took the wrong pill
   Fmaj7                                  Am7                   Em7
A|---7---12---7---12-|---7---12---7---5-|--------15-----------|-------10---------|
E|-------------------|------------------|---------------------|-0---0----0---0---|
C|-5---5----5---5----|-5---5----5---5---|-9----9----9----9----|------------------|
G|-------------------|------------------|---12--------12---12-|---7--------7---7-|

Fmaj7                 Am7       Em7
Oh I think I took the wrong pill

[Outro]
   Fmaj7               Am7                Em7
A|-12----------------|-15---------------|-10----------------|
E|-------------------|------------------|-0-----------------|
C|-5-----------------|-9----------------|-------------------|
G|-9-----------------|-12---------------|-7-----------------|

Fmaj7                  Am7       Em7
Oh, I think I took the wrong pill

   Fmaj7              Am7
A|-12----------------|-15---------------|
E|-------------------|------------------|
C|-5-----------------|-9----------------|
G|-9-----------------|-12---------------|

Fmaj7          Am7
Oh, I took the wrong pill

            
            
Suggest correction
Creating personal tab
Creating personal tab
You can edit any tab online and save it as your Personal.

You can edit, replace or remove any tab part or add personal notes – all changes will be seen only by you.

Personal tabs can be accessed anytime from any device, even offline.
Learn more »
Give kudos to tab author, rate the tab!
1 2 3 4 5
comments
print report bad tab
guest
You may want to rate the tab now too:
select rating
Wanna post a correction for this tab? Suggest correction