Oops, an error
Loading. Please wait.

Circles Tab

by Lush
139 views 1 this week
1 commentread comment
1 2 3 4 5
please rate
add to favorites
launch autoscroll
font size
0
reset
how to read this tab
guitar tuner
Autoscroll
slow
fast
+/-
esc
set tempo
stop
Help us to improve Ultimate-Guitar.com Take our survey!
×
Difficulty
intermediate
----------------------------------------------------------------------------
			     Circles – The Lush
----------------------------------------------------------------------------
Tabbed by: Jeremy Tripp
Email: thelushrock@hotmail.com

Tuning: DADGBe
Listen to the song for strumming patterns

Intro 2x: w/ Delay 
e|--------0--------------0---------------5+---7+------5+------5+-----------|
B|-------------0--------------0---------------------------5+---------------|
G|-------------------------------------------------------------------------|
D|-------------------------------------------------------------------------|
A|---4--------------2--------------0---------------------------------------|
D|-------------------------------------------------------------------------|

Verse I 4x: Rhythm Guitar					      
                                                              Last time 2x
e|----0-------------0--------------0-------------0---------------|-----0---|
B|----0-------------0--------------0-------------0---------------|-----0---|
G|----6-------------4--------------2-------------2---------------|-----4---|
D|----6-------------4--------------2-------------2---------------|-----4---|
A|----4-------------2--------------0-------------0---------------|-----2---|
D|---------------------------------------------------------------|---------|

Verse I 4x: Lead Guitar					      Last time 2x
e|-------------------------------------------------4------4---2--|---------|
B|------4---5--4------4---5--4--------4---5--4---------5---------|-4-5--4—5|
G|--------4------4------4------4--------4------4-----------------|---------|
D|---------------------------------------------------------------|---------|
A|---4---------------2-------------0-----------------------------|0----2---|
D|---------------------------------------------------------------|---------|

Chorus I 4x: Rhythm Guitar Clean				         End on
e|----0-------------0--------------0-------------0---------------|-----0---|
B|----0-------------0--------------0-------------0---------------|-----0---|
G|----6-------------4--------------2-------------4---------------|-----2---|
D|----6-------------4--------------2-------------4---------------|-----2---|
A|----4-------------2--------------0-------------2---------------|-----0---|
D|---------------------------------------------------------------|---------|

Chorus I 4x: Lead Guitar					End riff
e|---------------------------------------------------------|4--4-----------|
B|---------------------------------------------------------|-4--4--5-4--5-4|
G|----7-------------6--------------4------11-----6---------|--4--4-----4--4|
D|----x-------------x--------------x-------x-----x---------|---------------|
A|----7-------------6--------------4------11-----6---------|---------------|
D|---------------------------------------------------------|---------------|

Post-Chorus: Lead Guitar w/ Delay
e|--------0--------------0---------------5+---7+------5+------5+-----------|
B|-------------0--------------0---------------------------5+------5+-------|
G|-------------------------------------------------------------------------|
D|-------------------------------------------------------------------------|
A|---4--------------2--------------0---------------------------------------|
D|-------------------------------------------------------------------------|

Repeat Verse w/ Drums and Bass






Verse II Buildup: Lead Guitar					
e|------------------------------------------------------|
B|---------4------5---4-------------4---5-----4---5-----|
G|-----4-------4----------4-----4---------4-------------|
D|------------------------------------------------------|
A|------------------------------------------------------|
D|------------------------------------------------------|

Chorus II: Rhythm Guitar w/ Distortion
e|--0----------0----------0--------------0-------------|
B|--0----------0----------0--------------0-------------|
G|--6----------4----------2--------------4-------------|
D|--6----------4----------2-------2------4-------------|
A|--4----------2----------0-------2------2-------------|
D|--------------------------------2--------------------|

Post-Chorus 2x: Rhythm Guitar
e|--0----------0----------0--------------0-------------|
B|--0----------0----------0--------------0-------------|
G|--6----------4----------2--------------4-------------|
D|--6----------4----------2-------2------4-------------|
A|--4----------2----------0-------2------2-------------|
D|--------------------------------2--------------------|

Post-Chorus pt. I 4x: Lead Guitar
e|--7p0-----0---------4p0-----0----------------|
B|-------0------7p0--------------0---7p0-------|
G|---------------------------------------------|
D|---------------------------------------------|
A|---------------------------------------------|
D|---------------------------------------------|

Post-Chorus pt. II 4x: Lead Guitar
e|--9p0-----0---------7p0-----0----------------|
B|-------0------9p0--------------0---7p0-------|
G|---------------------------------------------|
D|---------------------------------------------|
A|---------------------------------------------|
D|---------------------------------------------|

Bridge: Rhythm Guitar
e|-----------0-------0-------0------0----------|
B|-----------0-------0-------0------0----------|
G|-----------2-------6-------4------2----------|
D|--2--------2-------6-------4------2----------|
A|--2--------0-------4-------2------0----------|
D|--2------------------------------------------|

Bridge: Lead Guitar
e|-------------------------------------------|-----------------------------|
B|-------------------------------------------|-----------------------------|
G|-------------------------------------------|--13-13-13\11/16-16-16-16----|
D|-------------------------------------------|-----------------------------|
A|--11-11-11\9/14-14-14-14-11-11-9-9-7-7-7-7-|-----------------------------|
D|-------------------------------------------|-----------------------------|

e|--12p0-11p0-12p0-14p0-12p0-11p0-12p0-11p0-7p0-7/9---|
B|----------------------------------------------------|
G|----------------------------------------------------|
D|----------------------------------------------------|
A|----------------------------------------------------|
D|----------------------------------------------------|

e|--12p0-11p0-12p0-14p0-12p0-11p0-7~------------------|
B|----------------------------------------------------|
G|----------------------------------------------------|
D|----------------------------------------------------|
A|----------------------------------------------------|
D|----------------------------------------------------|

Interlude: Rhythm Clean
e|-------------------------------------------------------------------------|
B|-------------------------------------------------------------------------|
G|-------------------------------------------------------------------------|
D|----2--2--2--2--2--2--4--4--4--6--6--6--9--9--9--9--9--9--4--4--4--4--4--|
A|--4--4--4--4--4--4--6--6--6--7--7--7--7--7--7--7--7--7--6--6--6--6--6—6--|
D|-------------------------------------------------------------------------|

e|----------------------------------|
B|----------------------------------|
G|----------------------------------|
D|--2----4----6----9----6----4------|
A|--4----6----7----7----7----6------|
D|----------------------------------|
PM.	.	.	.	.

Chorus III: Rhythm Guitar
e|--0----------0----------0--------------0-------------|
B|--0----------0----------0--------------0-------------|
G|--6----------4----------2--------------4-------------|
D|--6----------4----------2-------2------4-------------|
A|--4----------2----------0-------2------2-------------|
D|--------------------------------2--------------------|
  Clean.. . . . . . . .  Distorted . . . . . . . . . .

Chorus III pt. 1 4x: Lead Guitar
e|--7p0-----0---------4p0-----0----------------|
B|-------0------7p0--------------0---7p0-------|
G|---------------------------------------------|
D|---------------------------------------------|
A|---------------------------------------------|
D|---------------------------------------------|

Chorus III pt. 2 1x: Lead Guitar
e|--9p0-----0---------7p0-----0------------12p0-11p0-12p0-14p0-12p0-11p0-7~|
B|-------0------9p0--------------0---7p0-----------------------------------|
G|-------------------------------------------------------------------------|
D|-------------------------------------------------------------------------|
A|-------------------------------------------------------------------------|
D|-------------------------------------------------------------------------|


| /  slide up
| \  slide down
| h  hammer-on
| p  pull-off
| ~  vibrato
| +  harmonic
| x  Mute note
| PM Palm Mute
============================================================================
Suggest correction
Give kudos to tab author, rate the tab!
1 2 3 4 5
comments
print report bad tab
1 comment total.
0 reply
dnlmcl 21 wrote on December 1 2007, 06:32 pm

Thanks again for the tab, man.

guest
You may want to rate the tab now too:
select rating
Wanna post a correction for this tab? Suggest correction