Oops, an error
Loading. Please wait.

Deluxe Tab

version 1
version 1

Whole song

by Lush
10,308 views 57 this week
5 commentsread comments
1 2 3 4 5
accurate
x 6
add to favorites
launch autoscroll
font size
0
reset
how to read this tab
guitar tuner
Autoscroll
slow
fast
+/-
esc
set tempo
stop
Help us to improve Ultimate-Guitar.com Take our survey!
×
#----------------------------------PLEASE NOTE---------------------------------#
#This file is the author's own work and represents their interpretation of the #
#song. You may only use this file for private study, scholarship, or research. #
#------------------------------------------------------------------------------##
Date: Sat, 18 Nov 1995 15:09:40 -0800
From: sten@ix.netcom.com (Scott, Mari & Brian )
Subject: Tab:De-Luxe -Lush


Note: As with most tablaures, I suggest that you listen to the song
before playing!

                         "De-Luxe"-LUSH
                              written by,
                                   Emma Anderson

                              Transcribed by,
                                   Brian Ebbitt

Intro-Guitar1:
e--1-1-1-1-1--|
b-------------|
g-------------|
d-------------|
a-------------|
E-------------|

Intro-Guitar2:
e----0---------0----|    |-----3---------3-------5-------5---|
b-------0---------0-|    |--------3---------3-------5-------5|
g----------2--------|    |------------5----------------7-----|
d-2-----------------|x2  |-5-------------------7-------------|

e----7---------------|
b------7-------------|
g--------------------|
d-9------------------| repeat till verse


E    G    A
     I've been waiting on the slide
B       E      G
Suggest I open wide
A               B
No incentive to hide
E     G        A
Happy coursing through my veins
B     E    G    A
Don't even know my name
B    E   G  A
When I'm up you're coming down
B    E   G  A             B
When I'm up you're coming down
(This part wrong)
G             C             E
Inside of me, some sight to see
G             C             E
Some sight to feel our earthy bed


(Same as Above)
When we're wrapped in polythene
What's that supposed to mean
Paper flowers bring me luck
No birds in sight I fear
Stick sticks in you my dear
When I'm up you're coming down
When I'm up you'te coming down

Some say I'm vague
And I'd easily fade
Foolish parade of fantasy

Drink in your eyes
Drink in you sighs
Grass in my thighs my aching legs
Interlude:
E-G-A-B (Open chords with distortion)

(Clean open chords only with Intro of Guitar2):
When we're wrapped in polythene
What's that supposed to mean
Paper flowers bring me luck
No birds in sight I fear
Stick sticks in you my dear
When I'm up you're coming down
When I'm up you'te coming down

Guitar1
   E   G   A   B   C   D
e--0---3---5---7---3---5-------|
b--0---3---5---7---5---7-------|
g--1---4---6---8---5---7-------|
d--2---5---7---9---5---7-------|
a--2---5---7---9---3---5-------|
E--0---3---5---7---x---x-------|

Guitar2:
   E   G   A   B   C   D
e--0---3---0---2---0---2----------|
b--0---3---2---4---1---3----------|
g--1---0---2---4---0---2----------|
d--2---0---2---4---2---0----------|
a--2---2---0---2---3---x----------|
E--0---3---x---x---x---x----------|
---- End Forwarded Message
Suggest correction
comments
print report bad tab
5 comments total. Showing first comments.
0 reply
swave75 382 wrote on July 22 2012, 08:27 pm

Damn good!!!!

0 reply
whitherbottom 433 wrote on June 13 2013, 01:36 am

Sorry, dude from 1995, but you have to be tone deaf to think this starts with an F and then shoots into an E chord. Here's the whole song:

Intro-Guitar1:
e--0-0-0-0-0--|
b--5-5-5-5-5--|
g-------------|
d-------------|

Intro arpeggio-Guitar2:
E G A D
e----0-----------3----------0------------2-----------------|
b-------0---x2------3----------2----x2------3--------------|
g-1--------1---4-------4--2-------2----2-------2-----------|
d----------------------------------------------------------|

Verse chords (these can be bar chords or open chords, but you have to move up the neck - see their hands in the youtube video)

E / G / A / B

Chorus chords:

G / A / F#m / B

Bridge chords:

G#m / G / B repeat a few times, then play A chord, then back to Chorus

Outro (bar chords descending from 12th fret)

E (12th fret) / D (10th fret) / A (9th fret) / B (7th fret)

+1 reply
whitherbottom 433 wrote on October 12 2014, 07:51 am

Lack of accuracy. It's just wrong. Starts off with the wrong note. Other chords are wrong. And yet people are still viewing this bad tab!

guest
You may want to rate the tab now too:
select rating
Please do not post tabs as comments. Select "correction" instead!