Oops, an error
Loading. Please wait.

Desire Lines Tab

by Lush
1,286 views 1 this week
no commentswrite comment
1 2 3 4 5
please rate
add to favorites
launch autoscroll
font size
0
reset
how to read this tab
guitar tuner
Autoscroll
slow
fast
+/-
esc
set tempo
stop
Help us to improve Ultimate-Guitar.com Take our survey!
×
Author
                    
                           LUSH - 'DESIRE LINES'

                    * TAB BY COREY HUNTER: 16th Dec 2007



     F              Em              Em/B           Csus4
 1 3 3 2 x x    0 2 2 0 0 0      x 2 2 0 x x     x 3 3 0 x x

    Bm/F#         F#m/C#         Em(7th fr)         F/A
 x x 4 4 3 x    x 4 4 2 2 2      x 7 9 9 8 7     x 0 10 10 10 8

     F/C              Bm/D          F#m/A             A6
 8 x 10 10 10 x    x x 0 4 3 2   x 0 4 2 2 2     x 0 11 11 10 9


* Use the chords above for complete accuracy of voicings. 

* I have done the Intro theme but their is also an Interlude 
  with more variations which should be easy enough to 
  figure out....... 

* The guitarist uses a long delay with a low mix. 
  I occasionally noticed phrases delayed well after 
  the articulation had been made. This is a common effect in
  the 'ShoeGaze' genre.

Intro - Play @ 60bpm * Note the clock ticking!!
                F
 4/4
          Gtr I
  H    Q  E E   E E Q  +E  E E E
|-------------|--------------------|
|---------3-3-|-3S5-5--(5)-5-5-5b7r|
|-------------|--------------------|
|-------------|--------------------|
|-------------|--------------------|
|-------------|--------------------|


                          Em
  Q  +Q    E. S S S S S   E E Q  +E  E E S S
|-----------------------|--------------------|
|-5--(5)\--1--1-1-1-1-1-|-1-0-0--(0)-0-0-0---|
|-----------------------|------------------2-|
|-----------------------|--------------------|
|-----------------------|--------------------|
|-----------------------|--------------------|


                        F
  H    E. S +S  S S S   E E Q  +E  E E E
|---------------------|--------------------|
|-0----3--3-(3)-3-3-3-|-3S5-5--(5)-5-5-5b7r|
|---------------------|--------------------|
|---------------------|--------------------|
|---------------------|--------------------|
|---------------------|--------------------|


                          Em
  Q  +Q    E. S S S S S   E E Q  +E  E S S S S   W
|-----------------------|----------------------|------||
|-5--(5)\--1--1-1-1-1-1-|-1-0-0--(0)-0-0-0-0---|-0----||
|-----------------------|--------------------2-|------||
|-----------------------|----------------------|------||
|-----------------------|----------------------|------||
|-----------------------|----------------------|------||


   Verse
    Em/B                            Csus4
    E E Q  E E Q    E E Q  E E Q    E E Q  E E Q    E E Q  E E Q
||----------------|---------------|---------------|-----------------||
||o---------------|---------------|---------------|----------------o||
||------0------0--|-----0------0--|-----0------0--|-----0------0----||
||----2------2----|---2------2----|---3------3----|---3------3------||
||o-2------2------|-2------2------|-3------3------|-3------3-------o||
||----------------|---------------|---------------|-----------------||


  Bm/F#                 F#m/C#            Bm/F#
  E E E E +E  E +E  E   E E E E E E E E   E E E E E E E E
|---------------------|---------2-------|-----------------|
|-------3-(3)---------|-------2---2-----|-------3---------|
|---------------------|-----2-------2---|-----4---4---4---|
|-4-4-4-------4-(4)-4-|---4-----------4-|-4-4-------4---4-|
|---------------------|-4---------------|-----------------|
|---------------------|-----------------|-----------------|


  F#m/C#            Em
  E E E E E E E E   Q  Q  +H       W
|---------2-------|--------------|------||
|-------2---2-----|--------------|------||
|-----2-------2---|-0------------|------||
|---4-----------4-|--------------|------||
|-4---------------|----2--(2)----|------||
|-----------------|--------------|------||



2ND VERSE


   Em (7th fr)                  F/A

|  /  /  /  /  |  /  /  /  /  |  /  /  /  /  |  /  /  /  /  |


   Em (7th fr)                  F/C

|  /  /  /  /  |  /  /  /  /  |  /  /  /  /  |  /  /  /  /  |

   Bm/D                         F#m/A
   
|  /  /  /  /  |  /  /  /  /  |  /  /  /  /  |  /  /  /  /  |


   Bm/D                          A6

|  /  /  /  /  |  /  /  /  /  |  /  /  /  /  |  /  /  /  /  |


   Em                   * Do the intro theme again. 

|  /  /  /  /  |  /  /  /  /  || 








***************************************************************************************
* Generated using Power Tab Editor by Brad Larsen - http://powertab.guitarnetwork.org *
***************************************************************************************
Suggest correction
Give kudos to tab author, rate the tab!
1 2 3 4 5
comments
print report bad tab
guest
You may want to rate the tab now too:
select rating
Wanna post a correction for this tab? Suggest correction