Oops, an error
Loading. Please wait.

Sweetness And Light Tab

by Lush
3,647 views 3 this week
no commentswrite comment
1 2 3 4 5
2 more votes to show rating
add to favorites
launch autoscroll
font size
0
reset
how to read this tab
guitar tuner
Autoscroll
slow
fast
+/-
esc
set tempo
stop
Help us to improve Ultimate-Guitar.com Take our survey!
×
Author
Capo
7th fret
What a lovely song. Theres some arpeggiating and whatnot,  but im just putting the 
I think you can figure it out

CAPO 7

Intro/verse

e|------0------------0--------------------------------------------------------|
B|------3------------1--------------------------------------------------------|
G|------2------------0--------------------------------------------------------|
D|------0------------0--------------------------------------------------------|
A|------0---------------------------------------------------------------------|
E|----------------------------------------------------------------------------|

Chorus

e|-------0---------0---------0----------0-----------------------------------|
B|-------0---------0---------0----------0-----------------------------------|
G|-------0---------2---------2----------2-----------------------------------|
D|-------2---------0---------2----------2-----------------------------------|
A|-------0--------(2?)-------0----------0-----------------------------------|
E|--------------------------------------------------------------------------|


So thats the song, the end part is basically the chorus part with some effects and a 
variation of that last chord in the chorus (x02120) thrown in somewhere

cheers
Suggest correction
Give kudos to tab author, rate the tab!
1 2 3 4 5
comments
print report bad tab
guest
You may want to rate the tab now too:
select rating
Wanna post a correction for this tab? Suggest correction