Oops, an error
Loading. Please wait.

Scotty Doesnt Know Tab

version 4
version 4

Whole song

18,576 views 99 this week
2 commentsread comments
1 2 3 4 5
excellent!
x 5
add to favorites
launch autoscroll
font size
0
reset
how to read this tab
guitar tuner
Tab Pro tools
  • play this tab
  • loop segment
  • change instrument
  • show fretboard
  • metronome
×
Best way to learn
"Scotty Doesnt Know"
Autoscroll
slow
fast
+/-
esc
set tempo
stop
Difficulty
novice
Scotty Doesn't know
Lustra

"."= Pm(palm mute)


E--------------------------------------------|
B--------------------------------------------|
G--------------------------------------------|
D---55-44-55--55-44-55--55-44-55-77-55-44-55-|
A---------------------33---------------------|
E-33--------55-------------------------------|

E--------------------------------------------|
B--------------------------------------------|
G--------------------------------------------|
D---55-44-55--55-44-55--55-44-55-77-55-44-55-|
A---------------------33---------------------|
E-33--------55-------------------------------|

E--------------------------------------------|
B--------------------------------------------|
G--------------------------------------------|
D---55-44-55--55-44-55--55-44-55-77-55-44-55-|
A---------------------33---------------------|
E-33--------55-------------------------------|


E--------------------------------------|
B--------------------------------------|
G-----------44444444--3333333333333333-|
D-33333333--44444444--3333333333333333-|
A-33333333--22222222--5555555555555555-|
E-55555555-----------------------------|

E----------------------------------------|
B----------------------------------------|
G-----------44444444--33333333-----------|
D-33333333--44444444--33333333--77777777-|
A-33333333--22222222--55555555--77777777-|
E-55555555----------------------55555555-|

E-----------------------------------------------------|
B-----------------------------------------------10----|
G-----------------------------------------10----10-10-|
D-----------------------------------------10----10-10-|
A-55555555--77777777--1010101010101010-8--10--8----10-|
E-33333333--55555555--8-8-8-8-8-8-8-8-----------------|
  ........  ........  . . . . . . . .

E----------------------------------------------------------|
B----------------------------------------------------------|
G---------------------------------------10101010-----------|
D---------------------------------------10101010--10101010-|
A-55555555--77777777--1010101010101010--8-8-8-8---10101010-|
E-33333333--55555555--8-8-8-8-8-8-8-8-------------8-8-8-8--|
  ........  ........  . . . . . . . .

E--------------------------------------|
B--------------------------------------|
G-----------44444444--3333333333333333-|
D-33333333--44444444--3333333333333333-|
A-33333333--22222222--5555555555555555-|
E-55555555-----------------------------|

E----------------------------------------|
B----------------------------------------|
G-----------44444444--33333333-----------|
D-33333333--44444444--33333333--77777777-|
A-33333333--22222222--55555555--77777777-|
E-55555555----------------------55555555-|

E-----------------------------------------------------|
B-----------------------------------------------10----|
G-----------------------------------------10----10-10-|
D-----------------------------------------10----10-10-|
A-55555555--77777777--1010101010101010-8--10--8----10-|
E-33333333--55555555--8-8-8-8-8-8-8-8-----------------|
  ........  ........  . . . . . . . .

E--------------------------------------------------------------|
B---------------------------------------------------10--10-----|
G----------------------------------------10--10-----10--10-----|
D----------------------------------------10--10-----10------10-|
A-55555555--77777777--1010101010101010-----------8-------------|
E-33333333--55555555--8-8-8-8-8-8-8-8--------------------------|
  ........  ........  . . . . . . . .


E-----------------------------------------------------|
B-----------------------------------------------10----|
G-----------------------------------------10----10-10-|
D-----------------------------------------10----10-10-|
A-55555555--77777777--1010101010101010-8--10--8----10-|
E-33333333--55555555--8-8-8-8-8-8-8-8-----------------|
  ........  ........  . . . . . . . .

E----------------------------------------------------------|
B----------------------------------------------------------|
G---------------------------------------10101010-----------|
D---------------------------------------10101010--10101010-|
A-55555555--77777777--1010101010101010--8-8-8-8---10101010-|
E-33333333--55555555--8-8-8-8-8-8-8-8-------------8-8-8-8--|
  ........  ........  . . . . . . . .

E--------------------------------------|
B--------------------------------------|
G-----------44444444--3333333333333333-|
D-33333333--44444444--3333333333333333-|
A-33333333--22222222--5555555555555555-|
E-55555555-----------------------------|

E----------------------------------------|
B----------------------------------------|
G-----------44444444--33333333-----------|
D-33333333--44444444--33333333--77777777-|
A-33333333--22222222--55555555--77777777-|
E-55555555----------------------55555555-|

E--------------------------------------|
B--------------------------------------|
G-----------44444444--3333333333333333-|
D-33333333--44444444--3333333333333333-|
A-33333333--22222222--5555555555555555-|
E-55555555-----------------------------|

E----------------------------------------|
B----------------------------------------|
G-----------44444444--33333333-----------|
D-33333333--44444444--33333333--77777777-|
A-33333333--22222222--55555555--77777777-|
E-55555555----------------------55555555-|

E-----------------------------------------|
B---------12--10--------------------------|
G-X--X----12--12--------------------------|
D-----------------------------------------|
A-----------------------------------------|
E-----------------------------------------|

E-----------------------------------------|
B---------12------------------------------|
G-X--X--------12B-------------------------|
D-----------------------------------------|
A-----------------------------------------|
E-----------------------------------------|

E---------------------------------------------------------|
B---------------------------------------------------------|
G-4---4---4---4---5---5---5---5---2---2---2---2--55555555-|
D-4---4---4---4---5---5---5---3---2---2---2---2--55555555-|
A-2---2---2---2---3---3---3---3---0---0---0---0--33333333-|
E---------------------------------------------------------|
Give a little pause between each chord.          ........

E--------------------------------------------|
B--------------------------------------------|
G--------------------------------------------|
D---55-44-55--55-44-55--55-44-55-77-55-44-55-|
A---------------------33---------------------|
E-33--------55-------------------------------|

E--------------------------------------------|
B--------------------------------------------|
G--------------------------------------------|
D---55-44-55--55-44-55--55-44-55-77-55-44-55-|
A---------------------33---------------------|
E-33--------55-------------------------------|

E--------------------------------------------|
B--------------------------------------------|
G--------------------------------------------|
D---55-44-55--55-44-55--55-44-55-77-55-44-55-|
A---------------------33---------------------|
E-33--------55-------------------------------|

E--------------------------------------|
B--------------------------------------|
G-----------44444444--3333333333333333-|
D-33333333--44444444--3333333333333333-|
A-33333333--22222222--5555555555555555-|
E-55555555-----------------------------|

E--------------------------------------|
B--------------------------------------|
G-----------44444444--3333333333333333-|
D-33333333--44444444--3333333333333333-|
A-33333333--22222222--5555555555555555-|
E-55555555-----------------------------|

E--------------------------------------|
B--------------------------------------|
G-----------44444444--3333333333333333-|
D-33333333--44444444--3333333333333333-|
A-33333333--22222222--5555555555555555-|
E-55555555-----------------------------|

E------------------------------------------------------|
B------------------------------------------------------|
G-----------44444444--33333333--3--3--3--3--3--3--3--3-|
D-33333333--44444444--33333333--3--3--3--3--3--3--3--3-|
A-33333333--22222222--55555555--5--5--5--5--5--5--5--5-|
E-55555555---------------------------------------------|
                                start to slow down

E--------------------------------------|
B--------------------------------------|
G--------------------------------------|
D-3------------------------------------|
A-3------------------------------------|
E-5------------------------------------|
This is a whole note so sustain it for a little
comments
print report bad tab
2 comments total.
-1 reply
subnirvana wrote on October 16 2009, 04:25 pm

Finally someone gets it pertect! 5 out of five!

+2 reply
LPBTDTfreak wrote on April 18 2010, 02:36 pm

Umm...
It's good...
Almost Perfect...
Except your 3-5 power chords are reversed...

I want to post or [tab]
guest
You may want to rate the tab now too:
select rating
Please do not post tabs as comments. Select "correction" instead!