Oops, an error
Loading. Please wait.

Dance With My Father Chords

version 6
version 6
6,344 views 69 this week
no commentswrite comment
1 2 3 4 5
x 9
add to favorites
×
Save as Personal and add changes to this tab that will be seen only by you. Learn more ›
×
You can save this tab as Personal to edit and correct it or add notes. All changes will be seen only by you. Learn more »
save as personal
new!
launch autoscroll
font size
0
reset
transpose
0
reset
simplify chords
display chords
guitar tuner
Autoscroll
slow
fast
+/-
esc
set tempo
stop
Author
Difficulty
intermediate
Strumming
There is no strumming pattern for this song yet. and get +5 IQ
e|10-11-13-13--11-10-8---6-8-10-10---6--3--------|
B|-----------------------------------------------|
G|-----------------------------------------------|
D|-----------------------------------------------|
A|-----------------------------------------------|
E|-----------------------------------------------|

Bb                    F
Back when I was a child
D#                      D#/F    F 
    Before life removed all the innocence
Bb                       F 
    My father would lift me high
D#                       D#/F    F
    And dance with my mother and me and then 
Bb                         D#
Spin me around till I fell asleep
D#m                             Bb 
Then up the stairs he would car-ry me
           C/E 
And I knew for sure 
         Fsus F
I was loved 

   Bb           F
If I could get another chance
  Gm           D# 
Another walk, another dance with him
Cm                          Gm 
I’d play a song that would never, ever end
              D#            Fsus       F            Bb 
How I’d love, love, love to dance with my father again 

e|10-11-13-13--11-10-8---6-8-10-10---6--3--------|
B|-----------------------------------------------|
G|-----------------------------------------------|
D|-----------------------------------------------|
A|-----------------------------------------------|
E|-----------------------------------------------|

     Bb                       F
When I and my mother would disagree 
D#                        D#/F F
To get my way I would run from her to him 
Bb                            F
He’d make me laugh just to comfort me, yeah, yeah 
D#                      D#/F      F
Then finally make me do just what my mama said 
Bb/D                        D#
Later that night when I was asleep 
                   Bb
He'd left a dollar under my sheet 
              C/E
Never dreamed that he 
           Fsus         F
Would be gone from me 

   Bb                F
If I could steal one final glance
    Gm              D# 
One final walk, one final dance with him
Cm                          Gm 
I’d play a song that would never, ever end
                D#            Fsus       F            Bb 
Cause I’d love, love, love to dance with my father again 


D#                           F
Sometimes I’d listen outside her door
Bb                  F            Gm
And I’d hear how my mother cried for him 
D#                       Fsus   F
I pray for her even more than me
Cm7                      Fsus   F 
I pray for her even more than me 

e|10-11-13-13---11-10-8---6-8-10-10---6--3-------|
B|-----------------------------------------------|
G|-----------------------------------------------|
D|-----------------------------------------------|
A|-----------------------------------------------|
E|-----------------------------------------------|

  C                            G/B
I know I’m prayin for much too much
    Am                      F 
But could You send back the only man she loved 
Dm                       Am
I know You don’t do it usually
               F             Gsus       G         Am
But dear Lord, she’s dyin to dance with my father again
Fm6                                                  C
Every night I fall asleep and this is all I ever dream

e|12-13-15-15--13-12-10---10-8-7-8------3-3-3-0-|
B|-------------------------------8------3-1-0-1-|
G|-------------------------------9------------0-|
D|-------------------------------10-----------2-|
A|--------------------------------------------3-|
E|----------------------------------------------|
Suggest correction
comments
print report bad tab
guest
You may want to rate the tab now too:
select rating
Wanna post a correction for this tab? Suggest correction