Oops, an error
Loading. Please wait.

Never Too Much Tab

version 1
version 1

Whole song

Interactive

32,589 views 27 this week
3 commentsread comments
1 2 3 4 5
accurate
x 6
add to favorites
launch autoscroll
font size
0
reset
how to read this tab
guitar tuner
Autoscroll
slow
fast
+/-
esc
set tempo
stop
Help us to improve Ultimate-Guitar.com Take our survey!
×
Contributor
“Never Too Much”
Artist: Luther Vandross

Tabbed by: Brad Chamberlain

Intro:(00:03)
e|-10-12----10-12-------------------------10-12----10-12------|
B|-10-12----10-12-------------------------10-12----10-12------|
G|------------------------------------------------------------|
D|---------------------7-7--7-7--7h9--------------------------|
A|------------------------------------------------------------|
E|------------------------------------------------------------|

e|-------------------------|
B|-------------------------|
G|-11-11-9--11--9--11-9-11-| Repeat 1 more time.
D|-11-11-9--11--9--11-9-11-|
A|-------------------------|
E|-------------------------|

Verse:(00:38)
e|----------------------------------------------------------------|
B|----------------------------------------------------------------|
G|----------------------------------------------------------------|
D|-7-7--7-7--7h9--7--7-7--7-7-7h9--7-7--7-7--7h9--7--7-7--7-7-7h9-|
A|----------------------------------------------------------------|
E|----------------------------------------------------------------|

e|------------------------------------|
B|------------------------------------|
G|------------------------------------| Note: The 7h9 on A is used
D|-7-7--7-7--7h9--7--7-7---7-7------7-| in different times through
A|------------------------------7h9---| the verse.
E|------------------------------------|

Chorus:(01:17)
e|--------------|
B|-12--------14-|
G|-12--------14-| Repeat 2 more times.
D|-12--------14-|
A|--------------|
E|--------------|

Code:
h-hammer on
comments
print report bad tab
3 comments total.
0 reply
Blassassin 739 wrote on July 26 2009, 10:54 am

It was all good but you got the best bit wrong

e|-------------------------|
B|-------------------------|
G|-11-11-9--11--9--11-12-11| Repeat 1 more time.
D|-12-12-9--12--9--12-14-12|
A|-------------------------|
E|-------------------------|

+1 reply
muggler 28 wrote on December 19 2011, 01:51 pm

Still wrong, I think. More like this:

|------------------
|--7-7---7---7-8-10
|--7-7-9-7-9-7-9-11
|------9---9-------
|------------------
|------------------

0 reply
czaroguitar1 12 wrote on June 9 2013, 09:46 pm

Try this guys!
e----------------------
b--7-7-5-7--5--7-5--7--
G--7-7-6-7--6--7-6--7--
D----------------------
A----------------------
E----------------------

I want to post or [tab]
guest
You may want to rate the tab now too:
select rating
Please do not post tabs as comments. Select "correction" instead!