Oops, an error
Loading. Please wait.

Dame Un Beso Tab

45 views 1 this week
no commentswrite comment
1 2 3 4 5
3 more votes to show rating
add to favorites
launch autoscroll
font size
0
reset
how to read this tab
guitar tuner
×
Best way to learn
"Dame Un Beso"
Autoscroll
slow
fast
+/-
esc
set tempo
stop
E:   022100
B:   224442
Fm#: 244222
A:   002220
E7:  022130
D:   000232


[intro]
      E             E                        B               B  
E-||----------------------------------------------------------------------
B-||--5--5--7--9---------5--7--7/9--10----9--9----7-------------10-9-7----
G-||----------------------------------------------------------------------
D-||--6--6--7--9---------6--7--7/9--11----9--9----7-----------11--9-7-----
A-||----------------------------------------------------------------------
E-||----------------------------------------------------------------------

      F#m            F#m                   B          B
E-||---------------------------------------9----7-7------5-5-5-5/7--5-
B-||--7--7--9--10-10-----7--9--9/10--9--7-----------------------------
G-||---------------------------------------9----8-8------6-6-6-6/8--6-
D-||--7--7--9--11-11-----7--9--9/11--9--7-----------------------------
A-||------------------------------------------------------------------
E-||------------------------------------------------------------------

         E
Dame un beso       
                               B
Para sentir un cauce de agua clara
         F#m
Dame un beso
                             B
Para robar el cielo en tu mirada

E-||------------------------
B-||--7--7--5--4--4--2--0---
G-||------------------------
D-||--7--7--6--4--4--2--1---
A-||------------------------
E-||------------------------

         E
Dame un beso
        A                   B
En una noche que nunca se acaba
         F#m
Dame un beso
          B                 E      E7
En las tabernas de la madrugada


[a ritmo de rock]
          A
Hablan tus labios
      E
Ríe tu boca
           D
Y ahora mis manos
          B
Se vuelven locas


[solo, variando ligeramente la intro]

         E
Dame un beso
                               B
Como una estrella de luz enamorada
         F#m
Dame un beso
                            B
Como un árbol florecido de ramas
         E
Dame un beso
           A                 B
Como un inmenso campo de amapolas
         F#m
Dame un beso
          B                 E      E7
Con tu cuerpo rebosante de olas


[a ritmo de rock]
          A
Hablan tus labios
      E
Ríe tu boca
           D
Y ahora mis manos
          B
Se vuelven locas
          A
Hablan tus labios
      E
Ríe tu boca (lo sé, lo sé, lo sé)
           D
Y ahora mis manos
          B
Se vuelven locas


[outtro]
      E             E                  B              B  
E-||------------------------------------------------------------------
B-||--5--5--7--9---------5--7--9-9--10-9--10\9-7------------10-9-7----
G-||------------------------------------------------------------------
D-||--6--6--7--9---------6--7--9-9--11-9--11\9-7----------11--9-7-----
A-||------------------------------------------------------------------
E-||------------------------------------------------------------------

      F#m               B                               E
E-||-----------------------2-----------------7\5-----4--7\5--4---
B-||--7--7--9--10---------4---------4-3-4--7---------------------
G-||---------------------4---------------------------4--8\6--4--- 
D-||--7--7--9--11-------4-----------4-3-4--7---------------------
A-||-------------------2-----------------------------------------
E-||------------------2------------------------------------------


###--------------------------------###
### Tablatura de:  Enrique Moraño  ###
###  Sevilla [España]  para ATAME  ###
### emorano@   FEB-2003 ###
###--------------------------------###
Suggest correction
Give kudos to tab author, rate the tab!
1 2 3 4 5
comments
print report bad tab
guest
You may want to rate the tab now too:
select rating
Wanna post a correction for this tab? Suggest correction