Oops, an error
Loading. Please wait.

Always Move Fast tab

version 3
version 3

Whole song

by Lydia
28 views 1 this week
no commentswrite comment
1 2 3 4 5
3 more votes to show rating
add to favorites
×
Save as Personal and add changes to this tab that will be seen only by you. Learn more ›
×
You can save this tab as Personal to edit and correct it or add notes. All changes will be seen only by you. Learn more »
launch autoscroll
font size
0
reset
how to read this tab
guitar tuner
edit
Autoscroll
slow
fast
+/-
esc
set tempo
stop
[Verse 1]
Well can we take the
  1 + + + 2 + + + 3 + + + 4 + + + |1 + + + 2 + + + 3 + + + 4 + + + |
e|--------------------------------|--------------------------------|
B|--------------------------------|--------------------------------|
G|4-----------4-------4---4---4-4-|4-----------4-------4---4---4-4-|
D|2-----------2-------2---2---2-2-|4-----------4-------4---4---4-4-|
A|0-----------0-------0---0---0-0-|2-----------2-------2---2---2-2-|
E|--------------------------------|--------------------------------|

  streets?                             'Cause there's a horrible

  1 + + + 2 + + + 3 + + + 4 + + + |1 + + + 2 + + + 3 + + + 4 + + + |
e|0-----------0-------0---0---0---|----0-------0-------0---0---0-0-|
B|--------------------------------|--------------------------------|
G|4-----------4-------4---4---4---|----4-------4-------4---4---4-4-|
D|2-----------2-------2---2---2---|----2-------2-------2---2---2-2-|
A|4-----------4-------4---4---4---|----4-------4-------4---4---4-4-|
E|--------------------------------|--------------------------------|

              crash.                               Standing on the

  1 + + + 2 + + + 3 + + + 4 + + + |1 + + + 2 + + + 3 + + + 4 + + + |
e|--------------------------------|--------------------------------|
B|--------------------------------|--------------------------------|
G|4-----------4-------4---4---4-4-|4-----------4-------4---4---4-4-|
D|2-----------2-------2---2---2-2-|4-----------4-------4---4---4-4-|
A|0-----------0-------0---0---0-0-|2-----------2-------2---2---2-2-|
E|--------------------------------|--------------------------------|

  Highway                              A girl and her 

  1 + + + 2 + + + 3 + + + 4 + + + |1 + + + 2 + + + 3 + + + 4 + + + |
e|0---0-------0-------0---0---0---|----0---0---0-------------------|
B|--------------------------------|--------------------------------|
G|4---4-------4-------4---4---4---|----4---4---4-------------------|
D|2---2-------2-------2---2---2---|----2---2---2-------------------|
A|4---4-------4-------4---4---4---|----4---4---4-------------------|
E|--------------------------------|--------------------------------|

  dad.                                                 But you say yeah, 

  1 + + + 2 + + + 3 + + + 4 + + + |1 + + + 2 + + + 3 + + + 4 + + + |
e|--------------------------------|--------------------------------|
B|--------------------------------|--------------------------------|
G|4-----------4---4---4---4---4-4-|4---4---4-------4-------4---4-4-|
D|2-----------2---2---2---2---2-2-|4---4---4-------4-------4---4-4-|
A|0-----------0---0---0---0---0-0-|2---2---2-------2-------2---2-2-|
E|--------------------------------|--------------------------------|

      It's far too much for        me, far too fast a sce-

  1 + + + 2 + + + 3 + + + 4 + + + |1 + + + 2 + + + 3 + + + 4 + + + |
e|0-----------0-------0---0---0---|----0---0---0-------0---0---0-0-|
B|--------------------------------|--------------------------------|
G|4-----------4-------4---4---4---|----4---4---4-------4---4---4-4-|
D|2-----------2-------2---2---2---|----2---2---2-------2---2---2-2-|
A|4-----------4-------4---4---4---|----4---4---4-------4---4---4-4-|
E|--------------------------------|--------------------------------|

  nery.                                        But your voice

  1 + + + 2 + + + 3 + + + 4 + + + |1 + + + 2 + + + 3 + + + 4 + + + |
e|--------------------------------|--------------------------------|
B|--------------------------------|--------------------------------|
G|4---4---4---4---4---4---4---4-4-|4---4---4---4---4---4---4---4-4-|
D|2---2---2---2---2---2---2---2-2-|4---4---4---4---4---4---4---4-4-|
A|0---0---0---0---0---0---0---0-0-|2---2---2---2---2---2---2---2-2-|
E|--------------------------------|--------------------------------|

     and your lips are moving words that I cannot breach the noise

  1 + + + 2 + + + 3 + + + 4 + + + |1 + + + 2 + + + 3 + + + 4 + + + |
e|0-----------0-------0---0---0---|----0---0---0-------0---0---0-0-|
B|--------------------------------|--------------------------------|
G|4-----------4-------4---4---4---|----4---4---4-------4---4---4-4-|
D|2-----------2-------2---2---2---|----2---2---2-------2---2---2-2-|
A|4-----------4-------4---4---4---|----4---4---4-------4---4---4-4-|
E|--------------------------------|--------------------------------|

                                                   Just remember

  1 + + + 2 + + + 3 + + + 4 + + + |1 + + + 2 + + + 3 + + + 4 + + + |
e|--------------------------------|--------------------------------|
B|--------------------------------|--------------------------------|
G|4-----------------------4-------|--------------------------------|
D|2-----------------------4-------|--------------------------------|
A|0-----------------------2-------|--------------------------------|
E|--------------------------------|--------------------------------|

  Always         move     fast.

[Chorus 1]
  1 + + + 2 + + + 3 + + + 4 + + + |1 + + + 2 + + + 3 + + + 4 + + + |
e|0---0---0---0---0---0---0---0-0-|0---0---0---0---0---0---0---0---|
B|4---4---4---4---4---4---4---4-4-|4---4---4---4---4---4---4---4---|
G|5---5---5---5---5---5---5---5-5-|4---4---4---4---4---4---4---4---|
D|--------------------------------|--------------------------------|
A|--------------------------------|--------------------------------|
E|--------------------------------|--------------------------------|

                  We               know            you,

  1 + + + 2 + + + 3 + + + 4 + + + |1 + + + 2 + + + 3 + + + 4 + + + |
e|5---5---5---5-------5---5---5---|----5---5---5-------5---5---5-5-|
B|4---4---4---4-------4---4---4---|----4---4---4-------4---4---4-4-|
G|5---5---5---5-------5---5---5---|----5---5---5-------5---5---5-5-|
D|--------------------------------|--------------------------------|
A|--------------------------------|--------------------------------|
E|--------------------------------|--------------------------------|

  1 + + + 2 + + + 3 + + + 4 + + + |1 + + + 2 + + + 3 + + + 4 + + + |
e|0---0---0---0---0---0---0---0-0-|0---0---0---0---0---0---0---0---|
B|4---4---4---4---4---4---4---4-4-|4---4---4---4---4---4---4---4---|
G|5---5---5---5---5---5---5---5-5-|4---4---4---4---4---4---4---4---|
D|--------------------------------|--------------------------------|
A|--------------------------------|--------------------------------|
E|--------------------------------|--------------------------------|

                  we               own             you.

  1 + + + 2 + + + 3 + + + 4 + + + |1 + + + 2 + + + 3 + + + 4 + + + |
e|7---7---7---7-------7---7---7---|----7---7---7-------7---7---7-7-|
B|5---5---5---5-------5---5---5---|----5---5---5-------5---5---5-5-|
G|6---6---6---6-------6---6---6---|----6---6---6-------6---6---6-6-|
D|--------------------------------|--------------------------------|
A|--------------------------------|--------------------------------|
E|--------------------------------|--------------------------------|


  1 + + + 2 + + + 3 + + + 4 + + + |1 + + + 2 + + + 3 + + + 4 + + + |
e|0---0---0---0---0---0---0---0-0-|0---0---0---0---0---0---0---0---|
B|4---4---4---4---4---4---4---4-4-|4---4---4---4---4---4---4---4---|
G|5---5---5---5---5---5---5---5-5-|4---4---4---4---4---4---4---4---|
D|--------------------------------|--------------------------------|
A|--------------------------------|--------------------------------|
E|--------------------------------|--------------------------------|

  Go home,                         Leave me at the door

  1 + + + 2 + + + 3 + + + 4 + + + |1 + + + 2 + + + 3 + + + 4 + + + |
e|5---5---5---5-------5---5---5---|----5---5---5-------5---5---5-5-|
B|4---4---4---4-------4---4---4---|----4---4---4-------4---4---4-4-|
G|5---5---5---5-------5---5---5---|----5---5---5-------5---5---5-5-|
D|--------------------------------|--------------------------------|
A|--------------------------------|--------------------------------|
E|--------------------------------|--------------------------------|

                                                       Or we can

  1 + + + 2 + + + 3 + + + 4 + + + |1 + + + 2 + + + 3 + + + 4 + + + |
e|0---0---0---0---0---0---0---0-0-|0---0---0---0---0---0---0---0---|
B|4---4---4---4---4---4---4---4-4-|4---4---4---4---4---4---4---4---|
G|5---5---5---5---5---5---5---5-5-|4---4---4---4---4---4---4---4---|
D|--------------------------------|--------------------------------|
A|--------------------------------|--------------------------------|
E|--------------------------------|--------------------------------|

 Stay outside of your              house, and just wait

  1 + + + 2 + + + 3 + + + 4 + + + |1 + + + 2 + + + 3 + + + 4 + + + |
e|7---7---7---7-------7---7---7---|----7---7---7-------7---7---7-7-|
B|5---5---5---5-------5---5---5---|----5---5---5-------5---5---5-5-|
G|6---6---6---6-------6---6---6---|----6---6---6-------6---6---6-6-|
D|--------------------------------|--------------------------------|
A|--------------------------------|--------------------------------|
E|--------------------------------|--------------------------------|

                      for the morning.

[Post-Chorus 1]
  1 + + + 2 + + + 3 + + + 4 + + + |1 + + + 2 + + + 3 + + + 4 + + + |
e|0---0---0---0-------0---0-------|--------------------------------|
B|5---5---5---5-------5---0-------|--------------------------------|
G|6---6---6---6-------6---4-------|--------------------------------|
D|--------------------------------|--------------------------------|
A|--------------------------------|--------------------------------|
E|--------------------------------|--------------------------------|

  1 + + + 2 + + + 3 + + + 4 + + + |1 + + + 2 + + + 3 + + + 4 + + + |
e|0---0---0---0-------0---0-------|--------------------------------|
B|5---5---5---5-------5---0-------|--------------------------------|
G|6---6---6---6-------6---4-------|--------------------------------|
D|--------------------------------|--------------------------------|
A|--------------------------------|--------------------------------|
E|--------------------------------|--------------------------------|

[Verse 2]
Well I heard you
  1 + + + 2 + + + 3 + + + 4 + + + |1 + + + 2 + + + 3 + + + 4 + + + |
e|--------------------------------|--------------------------------|
B|--------------------------------|--------------------------------|
G|4-----------4-------4---4---4-4-|4-----------4-------4---4---4-4-|
D|2-----------2-------2---2---2-2-|4-----------4-------4---4---4-4-|
A|0-----------0-------0---0---0-0-|2-----------2-------2---2---2-2-|
E|--------------------------------|--------------------------------|

          can't stay too long          the morning's got you worried.

  1 + + + 2 + + + 3 + + + 4 + + + |1 + + + 2 + + + 3 + + + 4 + + + |
e|0---0---0---0-------0---0---0---|----0-------0-------0---0---0-0-|
B|--------------------------------|--------------------------------|
G|4---4---4---4-------4---4---4---|----4-------4-------4---4---4-4-|
D|2---2---2---2-------2---2---2---|----2-------2-------2---2---2-2-|
A|4---4---4---4-------4---4---4---|----4-------4-------4---4---4-4-|
E|--------------------------------|--------------------------------|

                                               'cause the sun holds a

  1 + + + 2 + + + 3 + + + 4 + + + |1 + + + 2 + + + 3 + + + 4 + + + |
e|--------------------------------|--------------------------------|
B|--------------------------------|--------------------------------|
G|4-----------4-------4---4---4-4-|4-----------4-------4---4---4-4-|
D|2-----------2-------2---2---2-2-|4-----------4-------4---4---4-4-|
A|0-----------0-------0---0---0-0-|2-----------2-------2---2---2-2-|
E|--------------------------------|--------------------------------|

          sea of troubles and an          early drive away

  1 + + + 2 + + + 3 + + + 4 + + + |1 + + + 2 + + + 3 + + + 4 + + + |
e|0---0---0---0-------0---0---0---|----0-------0-------0---0---0-0-|
B|--------------------------------|--------------------------------|
G|4---4---4---4-------4---4---4---|----4-------4-------4---4---4-4-|
D|2---2---2---2-------2---2---2---|----2-------2-------2---2---2-2-|
A|4---4---4---4-------4---4---4---|----4-------4-------4---4---4-4-|
E|--------------------------------|--------------------------------|
                                                
                                               So I guess I will 

  1 + + + 2 + + + 3 + + + 4 + + + |1 + + + 2 + + + 3 + + + 4 + + + |
e|--------------------------------|--------------------------------|
B|--------------------------------|--------------------------------|
G|4---4---4---4---4---4---4---4-4-|4---4---4---4---4---4---4---4-4-|
D|2---2---2---2---2---2---2---2-2-|4---4---4---4---4---4---4---4-4-|
A|0---0---0---0---0---0---0---0-0-|2---2---2---2---2---2---2---2-2-|
E|--------------------------------|--------------------------------|

  Stay for a while I guess you     knew it, from how I

  1 + + + 2 + + + 3 + + + 4 + + + |1 + + + 2 + + + 3 + + + 4 + + + |
e|0---0---0---0-------0---0---0---|----0-------0-------0---0---0-0-|
B|--------------------------------|--------------------------------|
G|4---4---4---4-------4---4---4---|----4-------4-------4---4---4-4-|
D|2---2---2---2-------2---2---2---|----2-------2-------2---2---2-2-|
A|4---4---4---4-------4---4---4---|----4-------4-------4---4---4-4-|
E|--------------------------------|--------------------------------|

          smiled.                             'Cause there's no hur-

  1 + + + 2 + + + 3 + + + 4 + + + |1 + + + 2 + + + 3 + + + 4 + + + |
e|--------------------------------|--------------------------------|
B|--------------------------------|--------------------------------|
G|4-----------4---4---4---4---4---|4-----------4-------4---4---4-4-|
D|2-----------2---2---2---2---2---|4-----------4-------4---4---4-4-|
A|0-----------0---0---0---0---0---|2-----------2-------2---2---2-2-|
E|--------------------------------|--------------------------------|

  ry,         (crescendo) more like fucking nursery, or a beautiful

  1 + + + 2 + + + 3 + + + 4 + + + |1 + + + 2 + + + 3 + + + 4 + + + |
e|0-----------0-------0---0---0---|----0-------0-------0---0---0-0-|
B|--------------------------------|--------------------------------|
G|4-----------4-------4---4---4---|----4-------4-------4---4---4-4-|
D|2-----------2-------2---2---2---|----2-------2-------2---2---2-2-|
A|4-----------4-------4---4---4---|----4-------4-------4---4---4-4-|
E|--------------------------------|--------------------------------|

              trail.                               Just remember

  1 + + + 2 + + + 3 + + + 4 + + + |1 + + + 2 + + + 3 + + + 4 + + + |
e|--------------------------------|--------------------------------|
B|--------------------------------|--------------------------------|
G|4-----------------------4-------|--------------------------------|
D|2-----------------------4-------|--------------------------------|
A|0-----------------------2-------|--------------------------------|
E|--------------------------------|--------------------------------|

  Always         move     fast.

[Chorus 2]
  1 + + + 2 + + + 3 + + + 4 + + + |1 + + + 2 + + + 3 + + + 4 + + + |
e|0---0---0---0---0---0---0---0-0-|0---0---0---0---0---0---0---0---|
B|4---4---4---4---4---4---4---4-4-|4---4---4---4---4---4---4---4---|
G|5---5---5---5---5---5---5---5-5-|4---4---4---4---4---4---4---4---|
D|--------------------------------|--------------------------------|
A|--------------------------------|--------------------------------|
E|--------------------------------|--------------------------------|

                  We               know            you,

  1 + + + 2 + + + 3 + + + 4 + + + |1 + + + 2 + + + 3 + + + 4 + + + |
e|5---5---5---5-------5---5---5---|----5---5---5-------5---5---5-5-|
B|4---4---4---4-------4---4---4---|----4---4---4-------4---4---4-4-|
G|5---5---5---5-------5---5---5---|----5---5---5-------5---5---5-5-|
D|--------------------------------|--------------------------------|
A|--------------------------------|--------------------------------|
E|--------------------------------|--------------------------------|

  1 + + + 2 + + + 3 + + + 4 + + + |1 + + + 2 + + + 3 + + + 4 + + + |
e|0---0---0---0---0---0---0---0-0-|0---0---0---0---0---0---0---0---|
B|4---4---4---4---4---4---4---4-4-|4---4---4---4---4---4---4---4---|
G|5---5---5---5---5---5---5---5-5-|4---4---4---4---4---4---4---4---|
D|--------------------------------|--------------------------------|
A|--------------------------------|--------------------------------|
E|--------------------------------|--------------------------------|

                  we               own             you.

  1 + + + 2 + + + 3 + + + 4 + + + |1 + + + 2 + + + 3 + + + 4 + + + |
e|7---7---7---7-------7---7---7---|----7---7---7-------7---7---7-7-|
B|5---5---5---5-------5---5---5---|----5---5---5-------5---5---5-5-|
G|6---6---6---6-------6---6---6---|----6---6---6-------6---6---6-6-|
D|--------------------------------|--------------------------------|
A|--------------------------------|--------------------------------|
E|--------------------------------|--------------------------------|


  1 + + + 2 + + + 3 + + + 4 + + + |1 + + + 2 + + + 3 + + + 4 + + + |
e|0---0---0---0---0---0---0---0-0-|0---0---0---0---0---0---0---0---|
B|4---4---4---4---4---4---4---4-4-|4---4---4---4---4---4---4---4---|
G|5---5---5---5---5---5---5---5-5-|4---4---4---4---4---4---4---4---|
D|--------------------------------|--------------------------------|
A|--------------------------------|--------------------------------|
E|--------------------------------|--------------------------------|

  Go home,                         Leave me at the door

  1 + + + 2 + + + 3 + + + 4 + + + |1 + + + 2 + + + 3 + + + 4 + + + |
e|5---5---5---5-------5---5---5---|----5---5---5-------5---5---5-5-|
B|4---4---4---4-------4---4---4---|----4---4---4-------4---4---4-4-|
G|5---5---5---5-------5---5---5---|----5---5---5-------5---5---5-5-|
D|--------------------------------|--------------------------------|
A|--------------------------------|--------------------------------|
E|--------------------------------|--------------------------------|

                                                       Or we can

  1 + + + 2 + + + 3 + + + 4 + + + |1 + + + 2 + + + 3 + + + 4 + + + |
e|0---0---0---0---0---0---0---0-0-|0---0---0---0---0---0---0---0---|
B|4---4---4---4---4---4---4---4-4-|4---4---4---4---4---4---4---4---|
G|5---5---5---5---5---5---5---5-5-|4---4---4---4---4---4---4---4---|
D|--------------------------------|--------------------------------|
A|--------------------------------|--------------------------------|
E|--------------------------------|--------------------------------|

 Stay outside of your              house, and just wait

  1 + + + 2 + + + 3 + + + 4 + + + |1 + + + 2 + + + 3 + + + 4 + + + |
e|7---7---7---7-------7---7---7---|----7---7---7-------7---7---7-7-|
B|5---5---5---5-------5---5---5---|----5---5---5-------5---5---5-5-|
G|6---6---6---6-------6---6---6---|----6---6---6-------6---6---6-6-|
D|--------------------------------|--------------------------------|
A|--------------------------------|--------------------------------|
E|--------------------------------|--------------------------------|

                      for the morning.

  1 + + + 2 + + + 3 + + + 4 + + + |1 + + + 2 + + + 3 + + + 4 + + + |
e|0---0---0---0---0---0---0---0-0-|0---0---0---0---0---0---0---0---|
B|4---4---4---4---4---4---4---4-4-|4---4---4---4---4---4---4---4---|
G|5---5---5---5---5---5---5---5-5-|4---4---4---4---4---4---4---4---|
D|--------------------------------|--------------------------------|
A|--------------------------------|--------------------------------|
E|--------------------------------|--------------------------------|

      'Cause I've seen your        sadness grow

  1 + + + 2 + + + 3 + + + 4 + + + |1 + + + 2 + + + 3 + + + 4 + + + |
e|5---5---5---5-------5---5---5---|----5---5---5-------5---5---5-5-|
B|4---4---4---4-------4---4---4---|----4---4---4-------4---4---4-4-|
G|5---5---5---5-------5---5---5---|----5---5---5-------5---5---5-5-|
D|--------------------------------|--------------------------------|
A|--------------------------------|--------------------------------|
E|--------------------------------|--------------------------------|

                                                       And it

  1 + + + 2 + + + 3 + + + 4 + + + |1 + + + 2 + + + 3 + + + 4 + + + |
e|0---0---0---0---0---0---0---0-0-|0---0---0---0---0---0---0---0---|
B|4---4---4---4---4---4---4---4-4-|4---4---4---4---4---4---4---4---|
G|5---5---5---5---5---5---5---5-5-|4---4---4---4---4---4---4---4---|
D|--------------------------------|--------------------------------|
A|--------------------------------|--------------------------------|
E|--------------------------------|--------------------------------|

          Swallows these days                      'Till it

  1 + + + 2 + + + 3 + + + 4 + + + |1 + + + 2 + + + 3 + + + 4 + + + |
e|7---7---7---7-------7---7---7---|----7---7---7-------7---7---7-7-|
B|5---5---5---5-------5---5---5---|----5---5---5-------5---5---5-5-|
G|6---6---6---6-------6---6---6---|----6---6---6-------6---6---6-6-|
D|--------------------------------|--------------------------------|
A|--------------------------------|--------------------------------|
E|--------------------------------|--------------------------------|

  hurts                                                to breathe.

[Post-Chorus 2]
  1 + + + 2 + + + 3 + + + 4 + + + |1 + + + 2 + + + 3 + + + 4 + + + |
e|0---0---0---0-------0---0-------|----0-------0-------0---0---0---|
B|5---5---5---5-------5---0-------|----0-------0-------0---0---0---|
G|6---6---6---6-------6---4-------|----4-------4-------4---4---4---|
D|--------------------------------|--------------------------------|
A|--------------------------------|--------------------------------|
E|--------------------------------|--------------------------------|

  1 + + + 2 + + + 3 + + + 4 + + + |1 + + + 2 + + + 3 + + + 4 + + + |
e|0---0---0---0-------0---0-------|--------------------------------|
B|5---5---5---5-------5---0-------|--------------------------------|
G|6---6---6---6-------6---4-------|--------------------------------|
D|--------------------------------|--------------------------------|
A|--------------------------------|--------------------------------|
E|--------------------------------|--------------------------------|

[Verse 3/Outro]
She whispers,
  1 + + + 2 + + + 3 + + + 4 + + + |1 + + + 2 + + + 3 + + + 4 + + + |
e|--------------------------------|--------------------------------|
B|--------------------------------|--------------------------------|
G|4-----------4-------4---4---4-4-|4-----------4-------4---4---4-4-|
D|2-----------2-------2---2---2-2-|4-----------4-------4---4---4-4-|
A|0-----------0-------0---0---0-0-|2-----------2-------2---2---2-2-|
E|--------------------------------|--------------------------------|

       "Thanks for your time                           tonight

  1 + + + 2 + + + 3 + + + 4 + + + |1 + + + 2 + + + 3 + + + 4 + + + |
e|0-----------0-------0---0---0---|----0-------0-------0---0---0-0-|
B|--------------------------------|--------------------------------|
G|4-----------4-------4---4---4---|----4-------4-------4---4---4-4-|
D|2-----------2-------2---2---2---|----2-------2-------2---2---2-2-|
A|4-----------4-------4---4---4---|----4-------4-------4---4---4-4-|
E|--------------------------------|--------------------------------|

                                                               but

  1 + + + 2 + + + 3 + + + 4 + + + |1 + + + 2 + + + 3 + + + 4 + + + |
e|--------------------------------|--------------------------------|
B|--------------------------------|--------------------------------|
G|4-----------4-------4---4---4-4-|4-----------4-------4---4---4-4-|
D|2-----------2-------2---2---2-2-|4-----------4-------4---4---4-4-|
A|0-----------0-------0---0---0-0-|2-----------2-------2---2---2-2-|
E|--------------------------------|--------------------------------|

      you are not awake yet           you are not awake I

  1 + + + 2 + + + 3 + + + 4 + + + |1 + + + 2 + + + 3 + + + 4 + + + |
e|0---0-------0-------0---0---0---|----0---0---0-------------------|
B|--------------------------------|--------------------------------|
G|4---4-------4-------4---4---4---|----4---4---4-------------------|
D|2---2-------2-------2---2---2---|----2---2---2-------------------|
A|4---4-------4-------4---4---4---|----4---4---4-------------------|
E|--------------------------------|--------------------------------|

              swear."                                   She screams,

  1 + + + 2 + + + 3 + + + 4 + + + |1 + + + 2 + + + 3 + + + 4 + + + |
e|--------------------------------|--------------------------------|
B|--------------------------------|--------------------------------|
G|4---4---4---4---4---4---4---4-4-|4---4---4---4---4---4---4---4-4-|
D|2---2---2---2---2---2---2---2-2-|4---4---4---4---4---4---4---4-4-|
A|0---0---0---0---0---0---0---0-0-|2---2---2---2---2---2---2---2-2-|
E|--------------------------------|--------------------------------|

  It's all been in your dreams         with nothing tangible.

  1 + + + 2 + + + 3 + + + 4 + + + |1 + + + 2 + + + 3 + + + 4 + + + |
e|0---0---0---0-------0---0---0---|----0-------0-------0---0---0-0-|
B|--------------------------------|--------------------------------|
G|4---4---4---4-------4---4---4---|----4-------4-------4---4---4-4-|
D|2---2---2---2-------2---2---2---|----2-------2-------2---2---2-2-|
A|4---4---4---4-------4---4---4---|----4-------4-------4---4---4-4-|
E|--------------------------------|--------------------------------|

                                                               The

  1 + + + 2 + + + 3 + + + 4 + + + |1 + + + 2 + + + 3 + + + 4 + + + |
e|--------------------------------|--------------------------------|
B|--------------------------------|--------------------------------|
G|2-----------2---2---2---2---2---|4-----------4-------4---4---4-4-|
D|2-----------2---2---2---2---2---|4-----------4-------4---4---4-4-|
A|0-----------0---0---0---0---0---|2-----------2-------2---2---2-2-|
E|--------------------------------|--------------------------------|

  girl,      this house,      the  highway,

  1 + + + 2 + + + 3 + + + 4 + + + |1 + + + 2 + + + 3 + + + 4 + + + |
e|0-----------0-------0---0---0---|----0-------0-------0---0---0-0-|
B|--------------------------------|--------------------------------|
G|4-----------4-------4---4---4---|----4-------4-------4---4---4-4-|
D|2-----------2-------2---2---2---|----2-------2-------2---2---2-2-|
A|4-----------4-------4---4---4---|----4-------4-------4---4---4-4-|
E|--------------------------------|--------------------------------|

      your mind made it real.                      Just remember 

  1 + + + 2 + + + 3 + + + 4 + + + |
e|------------------------0-------|
B|--------------------------------|
G|4---------------4---4---4-------|
D|2---------------2---2---2-------|
A|0---------------0---0---4-------|
E|--------------------------------|

  Always         move     fast.

            
            
Suggest correction
Creating personal tab
Creating personal tab
You can edit any tab online and save it as your Personal.

You can edit, replace or remove any tab part or add personal notes – all changes will be seen only by you.

Personal tabs can be accessed anytime from any device, even offline.
Learn more »
Give kudos to tab author, rate the tab!
1 2 3 4 5
comments
print report bad tab
guest
You may want to rate the tab now too:
select rating
Wanna post a correction for this tab? Suggest correction