Oops, an error
Loading. Please wait.

This Is Twice Now Tab

version 1
version 1

Whole song

Interactive

5,166 views 1 this week
1 commentread comment
1 2 3 4 5
please rate
add to favorites
launch autoscroll
font size
0
reset
how to read this tab
guitar tuner
Autoscroll
slow
fast
+/-
esc
set tempo
stop
Help us to improve Ultimate-Guitar.com Take our survey!
×
Difficulty
novice
 tabbed by:Zach Evans


This is my second lydia tab and im only 14 so if it sucks
 thats y and i cant read music,im not sure about the beginning but it just plays over 
over, but the rest is dead on,[enjoy]

e(-----2-------------)
G(-----3-------------)
B(-----2-------------)
A(-----0-------------)
F(-------------------)
E(-------------------)

e(------5----------------------------------------------)
G(----5------5--7--5---5/--7/--5--5/--7/--5/--2/--3/--2)
B(-----------------------------------------------------)
A(-----------------------------------------------------)
F(-----------------------------------------------------)
E(-----------------------------------------------------)
Suggest correction
Give kudos to tab author, rate the tab!
1 2 3 4 5
comments
print report bad tab
1 comment total.
0 reply
cuckingfookies 115 wrote on July 9 2009, 06:41 pm

I don't get it...?

guest
You may want to rate the tab now too:
select rating
Wanna post a correction for this tab? Suggest correction