Oops, an error
Loading. Please wait.

Dance Dance Dance Tab

version 3
version 3

Whole song

255 views 1 this week
1 commentread comment
1 2 3 4 5
please rate
add to favorites
launch autoscroll
font size
0
reset
how to read this tab
guitar tuner
Tab Pro tools
  • play this tab
  • loop segment
  • change instrument
  • show fretboard
  • metronome
×
Best way to learn
"Dance Dance Dance"
Autoscroll
slow
fast
+/-
esc
set tempo
stop
Difficulty
novice
Dance, Dance, Dance

Lykke Li - Youth Novels

First time:

E|--------------------------------------------------|
B|--------------------------------------------------|
G|--------------------------------------------------|
D|--------------------------------------------------|
A|--5--5--5--5--5--5--5--5--------------------------|
E|--------------------------4/3--3--3--3--3--3--3--3|

Then the pattern that repeats throughout the song:

E|------------------------------------------------------|
B|------------------------------------------------------|
G|------------------------------------------------------|
D|------------------------------------------------------|
A|--3/5--5--5--5--5--5--5--5----------------------------|
E|----------------------------4\3--3--3--3--3--3--3--3--|

The first time the horns come in play:

E|----------------------------|
B|----------------------------|
G|----------------------------|
D|----------------------------|
A|--3/5--5--5--5--5--5--5--5--| (x1)
E|----------------------------|

Followed by:
E|--------------------------|
B|--------------------------|
G|--------------------------|
D|--------------------------|
A|--5--5--5--5--5--5--5--5--| (x3)
E|--------------------------|

                                                        
                                                        
comments
We did not receive enough feedback on this tab! Please rate:
print report bad tab
1 2 3 4 5
1 comment total.
0 reply
objectioning wrote on July 12 2014, 07:18 am

Lack of accuracy.

I want to post or [tab]
guest
You may want to rate the tab now too:
select rating
Please do not post tabs as comments. Select "correction" instead!